PrimaNota.ru - самый крупный в мире бесплатный архив песенных текстов, аккордов, табулатур и нот


Between The Buried And Me - Swim To The Moon - таба, видео

Регистрация Запомнить меня
Войти через:  Facebook Google Twitter Vk Yandex Mail.ru

Between The Buried And Me - Swim To The Moon - таба, видео

Печатать
Просмотров: 241
-----------------------------------------------------------------------------
                 Swim To The Moon (Intro) by Between The Buried And Me
-----------------------------------------------------------------------------
Tabbed by: Skyler Hill
Email: skylerashimself1@hotmail.com

Tuning: C# Standard

Distorted Guitar
e|-12--------10------7-------------------------------------------------------|
B|------10------------------7---8---7----------------------------------------|
G|----9----9----12-7---9----------------9-------------------4-5-7------------|
D|-----------------------10---9---9---7---7-5---4-----4-5-7------------------|
A|------------------------------------------------5-7-------------2----------|
E|--------------------------------------------8-------------------0----------|


Distorted Guitar Comes In Again
e|-12--------10------7----------------------------------------------7-----5--|
B|------10------------------7---8---7-----------------------------5---5-8----|
G|----9----9----12-7---9----------------9-------------------4-5-7------------|
D|-----------------------10---9---9---7---7-5---4-----4-5-7------------------|
A|------------------------------------------------5-7------------------------|
E|--------------------------------------------8------------------------------|

         |Let Ring|             |   Let Ring   |
e|-----------0-----------------------0-----0---------------------------------|
B|-7h8p7p5\4---4-----5-------------------------------------------------------|
G|---------------4-5---5-4-------4-5---4-5---4-------------------------------|
D|-------------------------5---5---------------5---------3-------------------|
A|---------------------------7-------------------2-------3-------------------|
E|-----------------------------------------------0-------1-------------------|

Acoustic Guitar Section
e|-------------------------------------------------------------------------|
B|---------------------12--------------------------------------------------|
G|-------------12-11-9----12-11-9-11-9---------9------11-------------------|
D|-------------------------------------12-10-9---10-9----10-9--------------|
A|--2-2--2-2--------------------------------------------------12-10--------|
E|--0-0--0-0--------------------------------------------------------12-11--|


e|---------------------------------------------------------------------------|
B|---------------------------------------------------------------------------|
G|---------------------------------------------------------------------------|
D|---------------------------------------------------------------------------|
A|----9-10-9----9------------------------------------------------------------|
E|-12--------12--------------------------------------------------------------|

e|---------------------------------------------------------------------------|
B|---------------------------------------------------------------------------|
G|---------------------------------------------------------------------------|
D|---------------------------------------------------------------------------|
A|--------------------7-9-10-9--10-9--7-9--7-6-------------------------------|
E|--2-----------6-7-9--------------------------7-----------------------------|
   | Let Ring |


| /  slide up
| \  slide down
| h  hammer-on
| p  pull-off
| ~  vibrato
| +  harmonic
| x  Mute note
===============================================================================
Добавлено: 01.05.2012
Другие материалы по этой песне:

Страница создана 04.03.2012
http://primanota.ru/between-the-buried-and-me/swim-to-the-moon-chords.htm
Привет, Гость.
Предлагаем пройти революционный курс по гитаре.
Подарок от PrimaNota.Ru, забирай!