PrimaNota.ru - самый крупный в мире бесплатный архив песенных текстов, аккордов, табулатур и нот


Between The Buried And Me - Naked By The Computer - текст песни, таба, видео

Регистрация Запомнить меня
Войти через:  Facebook Google Twitter Vk Yandex Mail.ru

Between The Buried And Me - Naked By The Computer - текст песни, таба, видео

Печатать
Просмотров: 167
Db :|--3-----------3-|----------3-----|------3---------|
Ab :|7---7---7---7---|7---7---7---7---|7---7---7---7---|
E  :|------0---0-----|--0---0-------0-|--0-------0---0-|
B  :|5-------5---5---|----5---5-------|5---5-------5---|
Gb :|----------------|----------------|----------------|
Db :|----------------|----------------|----------------|

Db :|------5---------|--5-----------5-|----------5-----|------0-----3---|
Ab :|----3---3-------|3---3-------3---|3-------3-------|----3---3-----3-|
E  :|--6-------6---6-|------6---6-----|--6---6---------|--0-------------|
B  :|4-----------4---|--------4-------|----4-------4---|----------------|
Gb :|----------------|----------------|----------------|3---------3-3---|
Db :|----------------|----------------|----------------|----------------|

Db :|--0-------------|0-----------0-2-|3-------2-------|----2---3-------|
Ab :|----3---------3-|--3-------1-----|----0-----0-3---|------------0---|
E  :|0-----0-----0---|--------4-------|----------------|0---------------|
B  :|----------4-----|------2---------|2-----2-----2---|--2---2-2-----2-|
Gb :|--------2-------|----0-----------|----------------|----------------|
Db :|----------------|----------------|----------------|----------------|

Db :|2-----------2-3-|------3-----0---|----------------|--------0-2-0---|
Ab :|--0-3-----------|--------3-----3-|--0-1-3-------1-|----------------|
E  :|--------0-------|----0-----0-----|0-0-0-0-----4---|4-----2-------2-|
B  :|----2-----2-----|----------------|----------2-----|--2-0-----------|
Gb :|----------------|3---------------|--2-3-5-0-------|----------------|
Db :|----------------|----------------|----------------|----------------|

Db :|3-------2-------|----2---3-------|2-----------2-3-|------3-----0---|
Ab :|----0-----0-3---|------------0---|--0-3-----------|--------3-----3-|
E  :|----------------|0---------------|--------0-------|----0-----0-----|
B  :|2-----2-----2---|--2---2-2-----2-|----2-----2-----|----------------|
Gb :|----------------|----------------|----------------|3---------------|
Db :|----------------|----------------|----------------|----------------|

Db :|----------------|--------0-2-0---|----------------|----------------|
Ab :|--0-1-3-------1-|----------------|----------------|----------------|
E  :|0-0-0-0-----4---|4-----2-------2-|----------------|----------------|
B  :|----------2-----|--2-0-----------|----------------|----------------|
Gb :|--2-3-5-0-------|----------------|----------------|----------------|
Db :|----------------|----------------|----------------|----------------|

Notes: Forgive me for the length. I just exported text from a tab-it file I wrote and I 
feel like marking the repetitions.
Добавлено: 30.04.2012
Другие материалы по этой песне:
  • Аккорды и текст

Страница создана 23.04.2012
http://primanota.ru/between-the-buried-and-me/naked-by-the-computer-chords.htm
Привет, Гость.
Предлагаем пройти революционный курс по гитаре.
Подарок от PrimaNota.Ru, забирай!