PrimaNota.ru - самый крупный в мире бесплатный архив песенных текстов, аккордов, табулатур и нот


Between The Buried And Me - Moredecai - таба, видео

Регистрация Запомнить меня
Войти через:  Facebook Google Twitter Vk Yandex Mail.ru

Between The Buried And Me - Moredecai - таба, видео

Печатать
Просмотров: 104




|--12-------||
|--11-------||
|--10-------||
|--9--------||
|-----------||
|-----------||

|-----------------------------------------||
|-----------------------------------------||
|-----------------------------------------||
|-----------------------------------------||
|-3h6-----4h7-----3h6-----3p2h3p2h3p2h3p2-||
|-----000-----000-----000-----------------||
P.M.  ...     ...     ...

|-----------------------------------------||
|-----------------------------------------||
|-----------------------------------------||
|-------------------------5-4-3-----------||
|-3h6-----4h7-----3h6-----5-4-3-----------||
|-----000-----000-----000-3-2-1-----------||
P.M.  ...     ...     ...

|-----------------------------------------||
|-----------------------------------------||
|-----------------------------------------||
|-----------------------------------------||
|-3h6-----4h7-----3h6-----3p2h3p2h3p2h3p2-||
|-----000-----000-----000-----------------||
P.M.  ...     ...     ...

|-----------------------------------------||
|-----------------------------------------||
|-----------------------------------------||
|-------------------------5-4-3-----------||
|-3h6-----4h7-----3h6-----5-4-3-----------||
|-----000-----000-----000-3-2-1-----------||
P.M.  ...     ...     ...

|--------------------------------------------------------------||
|--------------------------------------------------------------||
|--------------------------------------------------------------||
|--------------------------------------------------------------||
|-(10)-(6)-(10)-(6)-(10)-(6)-(11)-(6)-(10)-(6)-(10)-(6)-9-----||
|--------------------------------------------------------------||

|-----------------------------------------||
|-----------------------------------------||
|-----------------------------------------||
|-----------------------------------------||
|-3h6-----4h7-----3h6-----3p2h3p2h3p2h3p2-||
|-----000-----000-----000-----------------||
P.M.  ...     ...     ...

|-----------------------------------------||
|-----------------------------------------||
|-----------------------------------------||
|-------------------------5-4-3-----------||
|-3h6-----4h7-----3h6-----5-4-3-----------||
|-----000-----000-----000-3-2-1-----------||
P.M.  ...     ...     ...

|-----------------------------------------||
|-----------------------------------------||
|-----------------------------------------||
|-----------------------------------------||
|-3h6-----4h7-----3h6-----3p2h3p2h3p2h3p2-||
|-----000-----000-----000-----------------||
P.M.  ...     ...     ...

|-----------------------------------------------||
|-----------------------------------------------||
|-----------------------------------------------||
|-------------------------5----4----3-----------||
|-3h6-----4h7-----3h6-----5----4----3-----------||
|-----000-----000-----000-3----2----1-----------||
P.M.  ...     ...     ...

|---------------------------------------------------------------||
|---------------------------------------------------------------||
|---------------------------------------------------------------||
|---------------------------------------------------------------||
|-(10)-(6)-(10)-(6)-(10)-(6)-(11)-(6)-(10)-(6)-(10)-(6)-9-------||
|---------------------------------------------------------------||

|--------------------------------------------||
|---------------------------------6----------||
|--------------------------------------------||
|---------7h8p7-----6-----6h7h8h9----9-------||
|-9--8----------7----6-----------------------||
|--------------------------------------------||

|------------------------------------13*----||
|----------------------------10111213--------||
|.-------78910121110910111213---------------.||
|.-891011-----------------------------------.||
|--------------------------------------------||
|--------------------------------------------|| X3

|--------------------------------------------------------------||
|--------------------------------------------------------------||
|----------------------------------------------------------6*--||
|-----2345----3456----2345----3456----4567----5678-----6789----||
|-3456----4567----3456----4567----5678----6789----78910--------||
|--------------------------------------------------------------||

                                       x4
|----------------------------------------||-----||
|----------------------------------------||-----||
|.--------------------------------------.||-----||
|.---------11-8---9-6---------2-3-7---6-.||---6-||
|--3-4-7-6-10-7-3-8-5-3-4-7-6-2-3-7-0-6--||-0-6-||
|--3-4-7-6-9--6-3-7-4-3-4-7-6-0-1-5-0-4--||-0-4-||
P.M..........................

                                                                            4x
|-----------------------------------------------------------------------------||
|-----------------------------------------------------------------------------||
|.---------------------------------------------------------------------12*--.||
|.-2-3-6--2-3------7*--6-3-2-3---96--------------------3-4/763/4---------.||
|--2-3-6--2-3--3/6-----6-3-2-3---85--------------------3-4/763/4----------||
|--0-1-4--0-1----------4-1-0-1---74--7-4-3-1-2-3--4*---3-4/763/4----------||
                                       P.M........

|-------------||
|-------------||
|-------------||
|-2-3-6--2-3-||
|-2-3-6--2-3-||
|-0-1-4--0-1-||

|---------------------------------------------------------5------------||
|-------------------------------------------------5-7-------7----------||
|---------------------5-7-8---7-5-------------5-7-----5-------8-7-5----||
|-----------6-----6-7-------------7-6-4-6---7-----------------------6--||
|-8-5---5-8-----9------------------------------------------------------||
|-----7----------------------------------------------------------------||

|-----------------------------------8---11----------------------------||
|----12----10-13----10-13-----10-----10----10-------------------------||
|-5/7----11------10------9--8----11----------8-------------4---7----7-||
|---------------------------------------------10-7-----5-4---7---8----||
|--------------------------------------------------9-7----------------||
|---------------------------------------------------------------------||

|--------15-13h14----------------------------------------12---15--17---
|----------------15---------------15-----------------13----13---13--13-
|------16----------14-12--14/16-16--14-12-12-----12----14--------------
|-12h14-----------------12------------------12h14--14------------------
|----------------------------------------------------------------------
|----------------------------------------------------------------------

 -19-19b-17-17/19-17--19------------15p14----
 -----------------------17--------15-----15--
 -16-16b-14-14/16-14------16-14h16-----------
 --------------------------------------------
 --------------------------------------------
 --------------------------------------------

 -18/19--------------------15/17-15--------------12--------------------15-----||
 -------------12--12h13p12---------------12-13-15--15-13-12h13p12--13----13---||
 -15/16--12h14--14---------12/14-12-12h14------------------------12--12----12-||
 -----------------------------------------------------------------------------||
 -----------------------------------------------------------------------------||
 -----------------------------------------------------------------------------||

|---------------------------------------------------------||
|-----------------------------19-17--------------15-------||
|------------------19------19-----------------------------||
|-16-17-16-17--16-------19--------------------------------||
|---------------------------------------------------------||
|---------------------------------------------------------||

Rythmn
|------------------------||
|------------------------||
|.-----7----------------.||
|.-2---5---5---4--------.||
|--2---3---5---5---------||
|--0-------3---2---------||

Lead
|--15-14---------------------------------------------------------14-15-----
|--------15---------15-----------15------------------------12-15-------15--
|.----------14-16-------12-11-12----11-12-12---12-11----14-----------------
|.---------------------------------------------------12--------------------
|--------------------------------------------------------------------------
|--------------------------------------------------------------------------

                                      x4
 --------------------------------1417---||
 ------------------------------15-------||
 -14-12-11-12-11-------------14--------.||
 ----------------12--------16----------.||
 -------------------12---17-------------||
 ---------------------------------------||
                         Sweep......

|-15-14------------------------------------------------
|-------15---------------------------------------------
|----------14-16-------16---14---16--b19r-16--------16-
|---------------------------------------------17-------
|------------------------------------------------------
|------------------------------------------------------

 -----------------------------------------------------||
 -----------------------------------------------------||
 ---14---16--b19r-16------------11----14-16-b19r-16---||
 ---------------------17--12--------------------------||
 -----------------------------------------------------||
 -----------------------------------------------------||

Добавлено: 25.11.2013
Другие материалы по этой песне:
  • Аккорды и текст

Страница создана 25.11.2013
http://primanota.ru/between-the-buried-and-me/moredecai-chords.htm
Привет, Гость.
Предлагаем пройти революционный курс по гитаре.
Подарок от PrimaNota.Ru, забирай!