PrimaNota.ru - самый крупный в мире бесплатный архив песенных текстов, аккордов, табулатур и нот


Between The Buried And Me - Malpractice - текст песни, бас-таба, видео

Регистрация Запомнить меня
Войти через:  Facebook Google Twitter Vk Yandex Mail.ru

Between The Buried And Me - Malpractice - текст песни, бас-таба, видео

Печатать
Просмотров: 120
Авторы музыки: Roddy Bottum, Mike Patton, Mike Bordin, Jim Martin, Billy Gould

Tuning: Standard


|---------------|
|---------------|
|---------------|
|-4444-3--0--0--|x4

|------|
|------|
|------|
|-4444-|


|---------------------|
|---------------------|
|-----------2222------|
|-3333-4444------0000-|x8

|-----------|
|-----------|
|-----------|
|-33-34-0-0-|x4


|-------------|
|-------------|
|-------------|
|-3--4--0-0-0-|x2

|-------------|
|-------------|
|-------2-3-5-|
|-3--4--------|

|-------------|
|-------------|
|-------------|
|-3--4--0-0-0-|

|-------------|
|-------------|
|-------2-3-5-|
|-3--4--------|x3

|-------------|
|-------------|
|-------------|
|-3--4--0-0-0-|x3

|-------------|
|-------------|
|-------2-3-5-|
|-3--4--------|

|-------------|
|-------------|
|-------------|
|-3--4--0-0-0-|

|-------------|
|-------------|
|-------2-3-5-|
|-3--4--------|x3

|-------------|
|-------------|
|-------------|
|-3--4--0-0-0-|


|--------|
|--------|
|--------|
|-3--4---|x4

|-------------------------|
|------1~-----------------|
|-----------2~---1--0-----|
|-3~-------------------3~-|x2


|---------------|
|---------------|
|---------------|
|-4444-3--0--0--|x8


|------------|
|----2-------|
|-3-----1--0-|
|------------|x6


|---------------|
|---------------|
|---------------|
|-4444-3--0--0--|x4


|---------------------|
|---------------------|
|-----------2222------|
|-3333-4444------0000-|x8

|--------|
|--------|
|--------|
|-3--4---|x4


|-------------|
|-------------|
|-------------|
|-3--4--0-0-0-|x2

|-------------|
|-------------|
|-------2-3-5-|
|-3--4--------|

|-------------|
|-------------|
|-------------|
|-3--4--0-0-0-|

|-------------|
|-------------|
|-------2-3-5-|
|-3--4--------|x3

|-------------|
|-------------|
|-------------|
|-3--4--0-0-0-|


|-------------------------|
|------1~-----------------|
|-----------2~---1--0-----|
|-3~-------------------3~-|x2


|-------------------------|
|-1~----------------------|
|-------------------------|
|-------------------------|


*I think there's bass in this part, but I guess you rest.
Pause.


|---------------|
|---------------|
|---------------|
|-4444-3--0--0--|x7

|------|
|------|
|------|
|-4444-|


|---------------------|
|---------------------|
|-----------2222------|
|-3333-4444------0000-|x8

|------|
|------|
|------|
|-3~---|


|---------------|
|---------------|
|---------------|
|-4444-3--0--0--|x15

|-------|
|-------|
|-------|
|-4444x-|
Добавлено: 18.03.2012
Другие материалы по этой песне:
  • Аккорды и текст

Страница создана 18.03.2012
http://primanota.ru/between-the-buried-and-me/malpractice-chords.htm
Привет, Гость.
Предлагаем пройти революционный курс по гитаре.
Подарок от PrimaNota.Ru, забирай!