PrimaNota.ru - самый крупный в мире бесплатный архив песенных текстов, аккордов, табулатур и нот


Between The Buried And Me - Little 15 - текст песни, бас-таба, видео

Регистрация Запомнить меня
Войти через:  Facebook Google Twitter Vk Yandex Mail.ru

Between The Buried And Me - Little 15 - текст песни, бас-таба, видео

Печатать
Просмотров: 140
Авторы музыки: Martin L. Gore
Авторы текста: Martin L. Gore
Tuning: Eb Standard
high to low (F#, C#, G#, Eb)


|-----------------------------------------|
|-----------------------------------------|
|-----------------------------------------|
|-4-1--4-1--4-1--4-1--3-0--3-0--3-0--3-0--|x6


*I can't really hear bass in this part, so here's what the synth plays.
|----------------|
|----------------|
|----------------|
|-5-6--4---3--4--|

|--------------|
|--------------|
|--------------|
|-6---4--3--4--|x2

|-----------|
|-----------|
|-----------|
|-6---4---3-|


|-------------------------------------------------------------|
|-------------------------------------------------------------|
|-8-7-8-7-8-5~---8-7-8-7-8-5~---7-5-7-5-7-4~---7-5-7-5-7-4~---|
|-------------------------------------------------------------|x3

|------------------------------------------------|
|------------------------------------------------|
|-8-7-8-7-8-5~---8-7-8-7-8-5~---7-5-7-5-7-4~---7-|
|------------------------------------------------|


|--------------------------------------------------------|
|--------------------------------------------------------|
|--------------------------------------------------------|
|-0~---2-0~---2-0~---2-0~---3-2~---3-2~---3-2~----3-2~---|

|----------------------------------------------------------|
|----------------------------------------------------------|
|----------------------------------------------------------|
|-2-0~---2-0~---2-0~---2-0~---3-2~---3-2~---3-2~----3-2~---|x4


|---------------------------------|
|---------------------------------|
|---------------------------------|
|-5---5---5---5---7---7---7---7---|

|-----------------|
|-----------------|
|-----------------|
|-5---5---5---5---|x3

|-----------------|
|-----------------|
|-----------------|
|-7---7---7---7---|x2

|-----------------|
|-----------------|
|-----------------|
|-5---5---5---5---|x2

|-----------|
|-----------|
|-----------|
|-5---5---5-|


|-----------------|
|-----------------|
|-----------------|
|-0~--------------|
Добавлено: 26.06.2012
Другие материалы по этой песне:

Страница создана 02.05.2012
http://primanota.ru/between-the-buried-and-me/little-15-chords.htm
Привет, Гость.
Предлагаем пройти революционный курс по гитаре.
Подарок от PrimaNota.Ru, забирай!