PrimaNota.ru - самый крупный в мире бесплатный архив песенных текстов, аккордов, табулатур и нот


Between The Buried And Me - Foam Born The Backtrack - таба, бас-таба, видео

Регистрация Запомнить меня
Войти через:  Facebook Google Twitter Vk Yandex Mail.ru

Between The Buried And Me - Foam Born The Backtrack - таба, бас-таба, видео

Печатать
Просмотров: 134
Transcribed by Paul Waggoner

C standard


    Q=60
   4/4
    Gtr I
||------------------------------|------------------------|
||o-------7---------------------|-------7----------------|
||--8---------9---(9)---8----9--|-8---------9---(9)---8--|
||------------------------------|------------------------|
||o-9----10-(10)-(10)-(10)-(10)-|-9----10-(10)-(10)-(10)-|
||--7---------------------------|-7----------------------|


|------------------------|-----------------|
|-5-----7----------------|-5-----7---------|
|-----------9---(9)---6--|------------9----|
|-6----------------------|-6---------------|
|-4----10-(10)-(10)-(10)-|-4----10--(10)---|
|------------------------|-----------------|


                                       2/4
|-------------------|-------------7---|-11------||
|--8----8---8---8---|-8---8---9--(9)--|-(9)----o||
|--8----8---8---8---|-8---8---8--(8)--|-(8)-----||
|-10--(10)--9--(9)--|-8--(8)--6--(6)--|-(6)-----||
|-------------------|-----------------|--------o||
|-------------------|-----------------|---------||


  Q.=80
 6/8
                    Gtrs II, III
|-------|-------||--------------|-------------|
|-------|-------||o-------------|-------------|
|-------|-------||--8-8-8-8-8-8-|-3-3-3-3-3-3-|
|-------|-------||--9-9-9-9-9-9-|-5-5-5-5-5-5-|
|-------|-------||o-9-9-9-9-9-9-|-6-6-6-6-6-6-|
|-------|-------||--7-7-7-7-7-7-|-3-3-3-3-3-3-|


|-------------|--------------||-||--------------------------------------|
|-------------|-------------o||-||o-------------------------------------|
|-4-4-4-4-4-4-|-1-1-1-1-1-1--||-||--8----8-----8-----8-----8------8-----|
|-6-6-6-6-6-6-|-2-2-2-2-2-2--||-||--9----9-----9-----9-----9------9-----|
|-6-6-6-6-6-6-|-2-2-2-2-2-2-o||-||o-9----9-----9-----9-----9------9-----|
|-4-4-4-4-4-4-|-0-0-0-0-0-0--||-||--7----7-----7-----7-----7------7-----|
|
|                                   Gtr IV
|-------------|--------------||-||-------------------0----(0)----(0)----|
|-------------|-------------o||-||o------------0----(0)----0-----(0)----|
|-------------|--------------||-||-------8----(8)---(8)---(8)-----8-----|
|-------------|--------------||-||--9---(9)---(9)---(9)---(9)----(9)----|
|-------------|-------------o||-||o-------------------------------------|
|-------------|--------------||-||--------------------------------------|
|
|                                   Gtr VI
|-------------|--------------||-||-------------------------------11--14-|
|-------------|-------------o||-||o---------------------------12--------|
|-------------|--------------||-||----8-11--8-----------8-11------------|
|-------------|--------------||-||--9----------9-----9------------------|
|-------------|-------------o||-||o---------------9---------------------|
|-------------|--------------||-||--------------------------------------|


|-------------------------------------------|
|-------------------------------------------|
|--3-----3------3------3------3------3------|
|--5-----5------5------5------5------5------|
|--6-----6------6------6------6------6------|
|--3-----3------3------3------3------3------|
|
|-------------------------------------------|
|----------------------8-----(8)----(8)-----|
|--------8-----(8)----(8)-----8-----(8)-----|
|--8----(8)-----8-----(8)----(8)-----8------|
|-------------------------------------------|
|-------------------------------------------|
|
|-18-15-------------------------------------|
|-------16-----16---------------------------|
|-----------15-----15-------------------15--|
|---------------------17------------17------|
|-------------------------18-13--18---------|
|-------------------------------------------|


|------------------------------------------|
|------------------------------------------|
|--4-----4------4------4------4------4-----|
|--6-----6------6------6------6------6-----|
|--6-----6------6------6------6------6-----|
|--4-----4------4------4------4------4-----|
|
|----------------------4-----(4)----(4)----|
|-----------------------------4-----(4)----|
|--------4-----(4)----(4)----(4)-----4-----|
|--6----(6)-----6-----(6)----(6)----(6)----|
|------------------------------------------|
|------------------------------------------|
|
|------------------------------------------|
|-------------------------16-21--16--------|
|-16-13------------13-16------------16-----|
|-------13-----13-----------------------18-|
|-----------14-----------------------------|
|------------------------------------------|


|-------------------------------------------||
|------------------------------------------o||
|--1-----1------1------1------1------1------||
|--2-----2------2------2------2------2------||
|--2-----2------2------2------2------2-----o||
|--0-----0------0------0------0------0------||
|
|----------------------0-----(0)----(0)-----||
|-----------------------------0-----(0)----o||
|--------1-----(1)----(1)----(1)-----1------||
|--2----(2)-----2-----(2)----(2)----(2)-----||
|------------------------------------------o||
|-------------------------------------------||
|
|-------16--19-16---------------------------||
|----17------------17----------------------o||
|-16------------------16--------------------||
|-------------------------18----------------||
|----------------------------19--14--------o||
|-----------------------------------16--12--||


|-------------------------------------|------------------------------------------|
|-------------------------------------|--8-----8------8------8------8------8-----|
|-8----8-----8-----8-----8------8-----|--6-----6------6------6------6------6-----|
|-9----9-----9-----9-----9------9-----|--8-----8------8------8------8------8-----|
|-9----9-----9-----9-----9------9-----|--6-----6------6------6------6------6-----|
|-7----7-----7-----7-----7------7-----|--6-----6------6------6------6------6-----|
|
|------------------0----(0)----(0)----|----------------------6-----(6)----(6)----|
|------------0----(0)----0-----(0)----|-----------------------------8-----(8)----|
|------8----(8)---(8)---(8)-----8-----|--------6-----(6)----(6)----(6)-----6-----|
|-9---(9)---(9)---(9)---(9)----(9)----|--8----(8)-----8-----(8)----(8)----(8)----|
|-------------------------------------|------------------------------------------|
|-------------------------------------|------------------------------------------|
|
|------------------------------11--14-|-18-15------------------------------------|
|---------------------------12--------|-------16-----16--14-------------------14-|
|---8-11--8-----------8-11------------|-----------15--------15------------15-----|
|-9----------9-----9------------------|-------------------------17-13--17--------|
|---------------9---------------------|------------------------------------------|
|-------------------------------------|------------------------------------------|


|------------------------------------------|---------------------------------------------|
|------------------------------------------|---------------------------------------------|
|--4-----4------4------4------4------4-----|--1-----1------1------1------1------1--------|
|--6-----6------6------6------6------6-----|--2-----2------2------2------2------2--------|
|--6-----6------6------6------6------6-----|--2-----2------2------2------2------2--------|
|--4-----4------4------4------4------4-----|--0-----0------0------0------0------0--------|
|
|----------------------4-----(4)----(4)----|----------------------0-----(0)----(0)-------|
|-----------------------------4-----(4)----|-----------------------------0-----(0)-------|
|--------4-----(4)----(4)----(4)-----4-----|--------1-----(1)----(1)----(1)-----1--------|
|--6----(6)-----6-----(6)----(6)----(6)----|--2----(2)-----2-----(2)----(2)----(2)-------|
|------------------------------------------|---------------------------------------------|
|------------------------------------------|---------------------------------------------|
|
|------------------------------------------|-------16--19-16-----------------------------|
|-------------------------16-21--16--------|----17------------17-------------------------|
|-16-13------------13-16------------16-----|-16------------------16----------------------|
|-------13-----13-----------------------18-|-------------------------18------------------|
|-----------14-----------------------------|----------------------------19--14-----------|
|------------------------------------------|-----------------------------------16--12----|


|-------------------------------------|------------------------------------------|
|-------------------------------------|------------------------------------------|
|-8----8-----8-----8-----8------8-----|--3-----3------3------3------3------3-----|
|-9----9-----9-----9-----9------9-----|--5-----5------5------5------5------5-----|
|-9----9-----9-----9-----9------9-----|--6-----6------6------6------6------6-----|
|-7----7-----7-----7-----7------7-----|--3-----3------3------3------3------3-----|
|
|------------------0----(0)----(0)----|------------------------------------------|
|------------0----(0)----0-----(0)----|----------------------8-----(8)----(8)----|
|------8----(8)---(8)---(8)-----8-----|--------8-----(8)----(8)-----8-----(8)----|
|-9---(9)---(9)---(9)---(9)----(9)----|--8----(8)-----8-----(8)----(8)-----8-----|
|-------------------------------------|------------------------------------------|
|-------------------------------------|------------------------------------------|
|
|------------------------------11--14-|-18-15------------------------------------|
|---------------------------12--------|-------16-----16--------------------------|
|---8-11--8-----------8-11------------|-----------15-----15-------------------15-|
|-9----------9-----9------------------|---------------------17------------17-----|
|---------------9---------------------|-------------------------18-13--18--------|
|-------------------------------------|------------------------------------------|


|------------------------------------------|---------------------------------------------|
|------------------------------------------|---------------------------------------------|
|--4-----4------4------4------4------4-----|--1-----1------1------1------1------1--------|
|--6-----6------6------6------6------6-----|--2-----2------2------2------2------2--------|
|--6-----6------6------6------6------6-----|--2-----2------2------2------2------2--------|
|--4-----4------4------4------4------4-----|--0-----0------0------0------0------0--------|
|
|----------------------4-----(4)----(4)----|----------------------0-----(0)----(0)-------|
|-----------------------------4-----(4)----|-----------------------------0-----(0)-------|
|--------4-----(4)----(4)----(4)-----4-----|--------1-----(1)----(1)----(1)-----1--------|
|--6----(6)-----6-----(6)----(6)----(6)----|--2----(2)-----2-----(2)----(2)----(2)-------|
|------------------------------------------|---------------------------------------------|
|------------------------------------------|---------------------------------------------|
|
|------------------------------------------|-------16--19-16-----------------------------|
|-------------------------16-21--16--------|----17------------17-------------------------|
|-16-13------------13-16------------16-----|-16------------------16----------------------|
|-------13-----13-----------------------18-|-------------------------18------------------|
|-----------14-----------------------------|----------------------------19--14-----------|
|------------------------------------------|-----------------------------------16--12----|


|------------------------------------------|
|------------------------------------------|
|--1-----1------1------1------1------1-----|
|--2-----2------2------2------2------2-----|
|--2-----2------2------2------2------2-----|
|--0-----0------0------0------0------0-----|
|
|----------------------0-----(0)----(0)----|
|-----------------------------0-----(0)----|
|--------1-----(1)----(1)----(1)-----1-----|
|--2----(2)-----2-----(2)----(2)----(2)----|
|------------------------------------------|
|------------------------------------------|
|
|-------------------------16-19--16--------|
|---------------------17------------17-----|
|------------------16-------------------16-|
|--------------18--------------------------|
|-------14--19-----------------------------|
|-12-16------------------------------------|


|------------------------------------------|-------|
|------------------------------------------|-------|
|--0-------------------0-------------------|--0----|
|--2-------------------2-------------------|--2----|
|--2-------------------2-------------------|--2----|
|--0-------------------0-------------------|--0----|
|
|------------------------------------------|-------|
|----------------------8-----(8)----(8)----|--8----|
|--------9-----(9)----(9)-----9-----(9)----|-11----|
|--9----(9)-----9-----(9)----(9)-----9-----|--9----|
|------------------------------------------|-------|
|------------------------------------------|-------|
|
|----15-19--15-----------------------------|-------|
|-17-----------17--------------------------|-------|
|------------------16----------------------|-------|
|---------------------17-------------------|-------|
|-------------------------19-14------------|-------|
|--------------------------------15-12--15-|--7----|


  Q.=120
 12/8
  Gtrs II, III
|--------------------------|-------------------------|
|--------------------------|-------------------------|
|-7--7-7-7-7--7---7-7--7-7-|--7--7-7-7-7--7--7-7-7-7-|
|-9--9-9-9-9--9---9-9--9-9-|--9--9-9-9-9--9--9-9-9-9-|
|-9--9-9-9-9--9---9-9--9-9-|--9--9-9-9-9--8--8-8-8-8-|
|-7--7-7-7-7--7---7-7--7-7-|--7--7-7-7-7--7--7-7-7-7-|
|
| Gtr IV
|--------------------------|-------------------------|
|--------7---11--12---14---|-15----------12----------|
|----7---------------------|-------------------------|
|-9------------------------|-------------------------|
|--------------------------|-------------------------|
|--------------------------|-------------------------|
|
| Gtr V
|--------------------------|-------------------------|
|--------------------------|-------------------------|
|--------------------------|-------------------------|
|--------4----8---9---11---|-12-----------9----------|
|----5---------------------|-------------------------|
|-7------------------------|-------------------------|


|----------------------------|---------------------------|
|----------------------------|---------------------------|
|--7--7-7--7-7--7---7-7--7-7-|--7--7-7-7-7--7---7-7--7-7-|
|--9--9-9--9-9--9---9-9--9-9-|--9--9-9-9-9--9---9-9--9-9-|
|--9--9-9--9-9--9---9-9--9-9-|--9--9-9-9-9--8---8-8--8-8-|
|--7--7-7--7-7--7---7-7--7-7-|--7--7-7-7-7--7---7-7--7-7-|
|
|-19------18---19--21---22---|---------------------------|
|----------------------------|-18----------12------------|
|----------------------------|-----------------13--------|
|----------------------------|----------------------15---|
|----------------------------|---------------------------|
|----------------------------|---------------------------|
|
|----------------------------|---------------------------|
|----------------------------|---------------------------|
|-16------15---16--18---19---|---------------------------|
|----------------------------|-15-----------9------------|
|----------------------------|-----------------11----8---|
|----------------------------|---------------------------|


|----------------------------|-------------------------|
|----------------------------|-------------------------|
|--7---7-7--7-7--7--7-7--7-7-|--7--7-7-7-7--7--7-7-7-7-|
|--9---9-9--9-9--9--9-9--9-9-|--9--9-9-9-9--9--9-9-9-9-|
|--9---9-9--9-9--9--9-9--9-9-|--9--9-9-9-9--8--8-8-8-8-|
|--7---7-7--7-7--7--7-7--7-7-|--7--7-7-7-7--7--7-7-7-7-|
|
|----------10---14------18---|-19----------------------|
|-----12---------------------|-------------15----------|
|-11-------------------------|-------------------------|
|----------------------------|-------------------------|
|----------------------------|-------------------------|
|----------------------------|-------------------------|
|
|----------------------------|-------------------------|
|----------------------------|-------------------------|
|-----------7---11------15---|-16----------------------|
|------9---------------------|-------------12----------|
|--9-------------------------|-------------------------|
|----------------------------|-------------------------|


|----------------------------|---------------------------|
|----------------------------|---------------------------|
|--7--7-7--7-7--7---7-7--7-7-|--7--7-7-7-7--7---7-7--7-7-|
|--9--9-9--9-9--9---9-9--9-9-|--9--9-9-9-9--9---9-9--9-9-|
|--9--9-9--9-9--9---9-9--9-9-|--9--9-9-9-9--8---8-8--8-8-|
|--7--7-7--7-7--7---7-7--7-7-|--7--7-7-7-7--7---7-7--7-7-|
|
|----------------------------|---------------------------|
|-12------11---12--14---15---|-18----------12------------|
|----------------------------|-----------------13--------|
|----------------------------|----------------------15---|
|----------------------------|---------------------------|
|----------------------------|---------------------------|
|
|----------------------------|---------------------------|
|----------------------------|---------------------------|
|----------------------------|---------------------------|
|--9-------8----9--11---12---|-15-----------9------------|
|----------------------------|-----------------11----8---|
|----------------------------|---------------------------|


    Q.=130
    Gtrs II, III
||--------------------------------------------------------|
||o-------------------------------------------------------|
||--7-7-7-7-7-7-7-7-7-7-7-7--7-7--7-7--7-7--7-7--7-7--7-7-|
||--9-9-9-9-9-9-9-9-9-9-9-9--9-9--9-9--9-9--9-9--9-9--9-9-|
||o-9-9-9-9-9-9-9-9-9-9-9-9--9-9--9-9--9-9--9-9--9-9--9-9-|
||--7-7-7-7-7-7-7-7-7-7-7-7--7-7--7-7--7-7--7-7--7-7--7-7-|
|
|   Gtrs IV, V
||--7-----------7-----------10-------------10-------------|
||o-----7-----------7------------12-------------12--------|
||----------7-----------7-------------11-------------11---|
||--------------------------------------------------------|
||o-------------------------------------------------------|
||--------------------------------------------------------|


|-------------------------------------------------------------------|
|-------------------------------------------------------------------|
|--7-7--7-7--7-7--7-7--7-7--7-7-10-10-10-10-10-10-10-10-10-10-10-10-|
|--9-9--9-9--9-9--9-9--9-9--9-9-11-11-11-11-11-11-11-11-11-11-11-11-|
|--9-9--9-9--9-9--9-9--9-9--9-9-11-11-11-11-11-11-11-11-11-11-11-11-|
|--7-7--7-7--7-7--7-7--7-7--7-7--9--9--9--9--9--9--9--9--9--9--9--9-|
|
|-14-------------14-------------13----------------13----------------|
|------15-------------15--------------14----------------14----------|
|-----------16-------------16---------------13----------------13----|
|-------------------------------------------------------------------|
|-------------------------------------------------------------------|
|-------------------------------------------------------------------|


|---------------------------------------------------------|
|---------------------------------------------------------|
|---------------------------------------------------------|
|---------------------------------------------------------|
|-4-4--4-4--4-4-4-4--4-4--4-4-4-4--4-4--4-4-4-4--4-4--4-4-|
|-1-1--1-1--1-1-1-1--1-1--1-1-1-1--1-1--1-1-1-1--1-1--1-1-|
|
|---------------------------------------------------------|
|-9-------------9-------------9-------------9-------------|
|-----10------------10------------10------------10--------|
|----------11------------11------------11------------11---|
|---------------------------------------------------------|
|---------------------------------------------------------|


|--------------------------------------------------------------||
|-------------------------------------------------------------o||
|--------------------------------------------------------------||
|--------------------------------------------------------------||
|--4-4--4-4--4-4--4-4--4-4--4-4--4-4--4-4--4-4--4-4--4-4--4-4-o||
|--1-1--1-1--1-1--1-1--1-1--1-1--1-1--1-1--1-1--1-1--1-1--1-1--||
|
|--------------------------------------------------------------||
|-10-------------10-------------10-------------10-------------o||
|------10-------------10-------------10-------------10---------||
|-----------11-------------11-------------11-------------11----||
|-------------------------------------------------------------o||
|--------------------------------------------------------------||


|-------------------------------------------------------|
|-------------------------------------------------------|
|-7-7-7-7-7-7-7-7-7-7-7-7--7-7--7-7--7-7--7-7--7-7--7-7-|
|-9-9-9-9-9-9-9-9-9-9-9-9--9-9--9-9--9-9--9-9--9-9--9-9-|
|-9-9-9-9-9-9-9-9-9-9-9-9--9-9--9-9--9-9--9-9--9-9--9-9-|
|-7-7-7-7-7-7-7-7-7-7-7-7--7-7--7-7--7-7--7-7--7-7--7-7-|
|
|-7-----------7-----------10-------------10-------------|
|-----7-----------7------------12-------------12--------|
|---------7-----------7-------------11-------------11---|
|-------------------------------------------------------|
|-------------------------------------------------------|
|-------------------------------------------------------|


|-------------------------------------------------------------------|
|-------------------------------------------------------------------|
|--7-7--7-7--7-7--7-7--7-7--7-7-10-10-10-10-10-10-10-10-10-10-10-10-|
|--9-9--9-9--9-9--9-9--9-9--9-9-11-11-11-11-11-11-11-11-11-11-11-11-|
|--9-9--9-9--9-9--9-9--9-9--9-9-11-11-11-11-11-11-11-11-11-11-11-11-|
|--7-7--7-7--7-7--7-7--7-7--7-7--9--9--9--9--9--9--9--9--9--9--9--9-|
|
|-14-------------14-------------13----------------13----------------|
|------15-------------15--------------14----------------14----------|
|-----------16-------------16---------------13----------------13----|
|-------------------------------------------------------------------|
|-------------------------------------------------------------------|
|-------------------------------------------------------------------|


|---------------------------------------------------------|
|---------------------------------------------------------|
|---------------------------------------------------------|
|---------------------------------------------------------|
|-4-4--4-4--4-4-4-4--4-4--4-4-4-4--4-4--4-4-4-4--4-4--4-4-|
|-1-1--1-1--1-1-1-1--1-1--1-1-1-1--1-1--1-1-1-1--1-1--1-1-|
|
|---------------------------------------------------------|
|-9-------------9-------------9-------------9-------------|
|-----10------------10------------10------------10--------|
|----------11------------11------------11------------11---|
|---------------------------------------------------------|
|---------------------------------------------------------|


  Q=130
 4/4
  Gtrs II, III
|-----------------*|
|-----------------*|
|-----------------*|
|-6--6--4-7-3-----*|
|-4--4------------*|
|-4--4--2-5-1-----*|
Добавлено: 21.05.2012
Другие материалы по этой песне:

Страница создана 25.02.2012
http://primanota.ru/between-the-buried-and-me/foam-born-the-backtrack-chords.htm
Привет, Гость.
Предлагаем пройти революционный курс по гитаре.
Подарок от PrimaNota.Ru, забирай!