PrimaNota.ru - самый крупный в мире бесплатный архив песенных текстов, аккордов, табулатур и нот


Between The Buried And Me - Fire For A Dry Mouth - текст песни, таба, видео

Регистрация Запомнить меня
Войти через:  Facebook Google Twitter Vk Yandex Mail.ru

Between The Buried And Me - Fire For A Dry Mouth - текст песни, таба, видео

Печатать
Просмотров: 128
this is about 100% right

Guitar 1
--17------13--12----------|--20------17---------------|
------15----------13------|------18-------18----------|
----------------------12--|-------------------17--16--|
--------------------------|---------------------------|
--------------------------|---------------------------|
--------------------------|---------------------------|



--19------15--------------|--22------19----------------|
-------15-----------------|------20--------20----------|
--------------16--17--14--|-------------------19--21--*|
--------------------------|---------------------------*|
--------------------------|----------------------------|
--------------------------|----------------------------|



------19--20------------|------17--15-------------|------12--13----------10|
--17----------18----17--|--15----------177--------|------------------13----|
------------------------|---------------------16--|--14----------12--------|
------------------------|-------------------------|------------------------|
------------------------|-------------------------|------------------------|
------------------------|-------------------------|------------------------|



--------8--------8--|--17------13--12-----------|--20------17--------------|
--------------------|------15----------133------|------18------18----------|
-----9--------9-----|-----------------------12--|------------------17--16--|
--9--------9--------|---------------------------|--------------------------|
--------------------|---------------------------|--------------------------|
--------------------|---------------------------|--------------------------|



--19------15--------------|--22------19---------------|------19--20--------|
------15------------------|------20-------17------17--|--17---------18-17--|
--------------16--17--14--|-------------------19------|--------------------|
--------------------------|---------------------------|--------------------|
--------------------------|---------------------------|--------------------|
--------------------------|---------------------------|--------------------|



------17--15------------|------12--13-----------10--|--------8--------8--|
--15----------17--------|-------------------13------|--------------------|
--------------------16--|--14----------122----------|-----9--------9-----|
------------------------|---------------------------|--9--------9--------|
------------------------|---------------------------|--------------------|
------------------------|---------------------------|--------------------|



--17------13--12----------|--17------13---12----------|
------15----------13------|------15-----------13------|
----------------------12--|-----------------------12--|
--------------------------|---------------------------|
--------------------------|---------------------------|
--------------------------|---------------------------|



--17------13--12----------|--17------13---12----------|
------15----------13------|------15-----------13------|
----------------------12--|-----------------------12--|
--------------------------|---------------------------|
--------------------------|---------------------------|
--------------------------|---------------------------|



--17------13--12----------|--17------13---12----------|
------15----------13------|------15-----------13------|
----------------------12--|-----------------------12--|
--------------------------|---------------------------|
--------------------------|---------------------------|
--------------------------|---------------------------|



--17------13--12----------|--17------13---12----------|
------15----------13------|------15-----------13------|
----------------------12--|-----------------------12--|
--------------------------|---------------------------|
--------------------------|---------------------------|
--------------------------|---------------------------|



--17------13--12----------|--17------13---12----------|
------15----------13------|------15-----------13------|
----------------------12--|-----------------------12--|
--------------------------|---------------------------|
--------------------------|---------------------------|
--------------------------|---------------------------|



--17------13--12----------|--17------13---12----------|
------15----------13------|------15-----------13------|
----------------------12--|-----------------------12--|
--------------------------|---------------------------|
--------------------------|---------------------------|
--------------------------|---------------------------|



--17------13--12----------|--17------13---12----------|
------15----------13------|------15-----------13------|
----------------------12--|-----------------------12--|
--------------------------|---------------------------|
--------------------------|---------------------------|
--------------------------|---------------------------|



--17------13--12----------|--17------13---12----------|----|
------15----------13------|------15-----------13------|----|
----------------------12--|-----------------------12--|----|
--------------------------|---------------------------|----|
--------------------------|---------------------------|----|
--------------------------|---------------------------|----|

Guitar 2
|----------------------------|--------------------|-----------------------|
|----------------------------|--------6--------8--|---------10---------8--|
|*--------5----------9-10-12-|--------------9-----|-----------------------|
|*-----7-----9-10-12---------|-----7--------------|-----10---------10-----|
|---0------------------------|--5--------7--------|--8----------8---------|
|----------------------------|--------------------|-----------------------|



--------------------------|----------------------------|
----------12----------13--|----------15-----------13---|
--------------------------|------16-----------16------*|
------12----------12------|---------------------------*|
--10----------12----------|--14-----------14-----------|
--------------------------|----------------------------|



----------12----------8--|--------7------------|--------5--------------|
-------------------------|------------------8--|-------------------12--|
------12----------10-----|-----7--------99-----|-----5---------12------|
--10---------------------|--5------------------|-----------------------|
--------------12---------|-----------7---------|--8--------10----------|
-------------------------|---------------------|-----------------------|



----------12----------12--|---------------------|-----------------------|
--------------------------|--------6---------8--|---------10---------8--|
------12----------12------|---------------9-----|-----------------------|
--10----------10----------|-----7---------------|-----10---------10-----|
--------------------------|--5--------7---------|--8----------8---------|
--------------------------|---------------------|-----------------------|



--------------------------|---------------------------|----------12-----8--|
----------12----------13--|----------15-----------13--|--------------------|
--------------------------|------16-----------16------|------12------------|
------12----------12------|---------------------------|--10----------------|
--10----------12----------|--14-----------14----------|--------------12----|
--------------------------|---------------------------|--------------------|



--------7-----------|--------5---------------|----------12----------12--|
-----------------8--|-------------------112--|--------------------------|
-----7--------9-----|-----5---------12-------|------12----------12------|
--5-----------------|------------------------|--10----------10----------|
-----------7--------|--8--------10-----------|--------------------------|
--------------------|------------------------|--------------------------|



--20------17--------------|--20------17---------------|
------18------18----------|------18-------18----------|
------------------17--16--|-------------------17--16--|
--------------------------|---------------------------|
--------------------------|---------------------------|
--------------------------|---------------------------|



--20------17--------------|--20------17---------------|
------18------18----------|------18-------18----------|
------------------17--16--|-------------------17--16--|
--------------------------|---------------------------|
--------------------------|---------------------------|
--------------------------|---------------------------|



--20------17--------------|--20------17---------------|
------18------18----------|------18-------18----------|
------------------17--16--|-------------------17--16--|
--------------------------|---------------------------|
--------------------------|---------------------------|
--------------------------|---------------------------|



--20------17--------------|--20------17---------------|
------18------18----------|------18-------18----------|
------------------17--16--|-------------------17--16--|
--------------------------|---------------------------|
--------------------------|---------------------------|
--------------------------|---------------------------|



--20------17--------------|--20------17---------------|
------18------18----------|------18-------18----------|
------------------17--16--|-------------------17--16--|
--------------------------|---------------------------|
--------------------------|---------------------------|
--------------------------|---------------------------|



--20------17--------------|--20------17---------------|
------18------18----------|------18-------18----------|
------------------17--16--|-------------------17--16--|
--------------------------|---------------------------|
--------------------------|---------------------------|
--------------------------|---------------------------|



--20------17--------------|--20------17---------------|
------18------18----------|------18-------18----------|
------------------17--16--|-------------------17--16--|
--------------------------|---------------------------|
--------------------------|---------------------------|
--------------------------|---------------------------|



--20------17--------------|--20------17---------------|
------18------18----------|------18-------18----------|
------------------17--16--|-------------------17--16--|
--------------------------|---------------------------|
--------------------------|---------------------------|
--------------------------|---------------------------|




tabbed by Ben Hook and Cole Gerdeman
Добавлено: 22.05.2012
Другие материалы по этой песне:
  • Аккорды и текст

Страница создана 22.05.2012
http://primanota.ru/between-the-buried-and-me/fire-for-a-dry-mouth-chords.htm
Привет, Гость.
Предлагаем пройти революционный курс по гитаре.
Подарок от PrimaNota.Ru, забирай!