PrimaNota.ru - самый крупный в мире бесплатный архив песенных текстов, аккордов, табулатур и нот


Between The Buried And Me - Colors Part 1 - таба, видео

Регистрация Запомнить меня
Войти через:  Facebook Google Twitter Vk Yandex Mail.ru

Between The Buried And Me - Colors Part 1 - таба, видео

Печатать
Просмотров: 115
-------------------------------------------------------------------------------
			     Colors - Between the Buried and Me
-------------------------------------------------------------------------------
Tabbed by: Jason Paszek (Autopoietic Boy)
Email: J.W.Paszek.Guitar.Instruction@gmail.com

Tuning: Standard (EADGBe)


I'm sure this song's not in standard tuning, but the intro which is played
on the piano (transcribed for guitar) is obviously in standard tuning.  I
selected "intro", but really I've tabbed it a bit further (to about 2:18 in
the song) right before the blast beats and deep chugs.  


Piano intro transcribed for guitar:

e|---------------------------------------------------------------------------|
B|-------4---------------4---------------------------------------------------|
G|--5-------6--5h6-5---------6--5h6 6-----8--6-----6----8--6-----------------|
D|--6--------------6----------------8-----------8--8---------8---------------|
A|--6--------------6----------------8--------------8-------------------------|
E|---------------------------------------------------------------------------|

e|-------------------------8-------------------------------------------------|
B|----------------------9--9-------------------------------------------------|
G|---9----9----9---10--10-10-------------------------------------------------|
D|--10---10---10---10--10-10-------------------------------------------------|
A|--12---11---10---8---------------------------------------------------------|
E|---------------------------------------------------------------------------|

   G#       G#maj7  Fm      C#      G#    G#maj7 Fm    C#      C#m

e|-------------------1----------------------------1--------------------------|
B|--4----------------1-------6-------4------------1-----6-------5------------|
G|--5--------5-------1-------6-------5------5-----1-----6-------6------------|
D|--6--------6-------3-------6-------6------6-----3-----6-------6------------|
A|--6--------6-------3-------4-------6------6-----3-----4-------4------------|
E|--4--------3-------1-------4-------4------3-----1-----4-------4------------|

e|---------------7-----16--15-16-18-19--------------------------------16-----|
B|------3-4--8-9---9-------------------15--------------------------15----12--|
G|----4-------------------------------------13------------12-13-16-----------|
D|--6------------------------------------------15--12--13--------------------|
A|---------------------------------------------------------------------------|
E|---------------------------------------------------------------------------|

e|---------------------------------------------------------------------------|
B|------------------15-----------------7--------------7----------------------|
G|--13-12-13-15--16-----13----4----7---7----4-----7---7----------------------|
D|----------------------------6----8---8----6-----8---8----------------------|
A|---------------------------------------------------------------------------|
E|----------------------------4----6---6----4-----6---6----------------------|




************************************

| /   slide up
| \   slide down
| h   hammer-on
| p   pull-off
| ~   vibrato
| +   harmonic
| x   Mute note
| b   Bend
| pb  Pre-bend
| br  Bend release
| pbr Pre-bend release
| brb Bend release bend

************************************
Добавлено: 12.09.2013
Другие материалы по этой песне:
  • Аккорды и текст

Страница создана 12.09.2013
http://primanota.ru/between-the-buried-and-me/colors-part-1-chords.htm
Привет, Гость.
Предлагаем пройти революционный курс по гитаре.
Подарок от PrimaNota.Ru, забирай!