PrimaNota.ru - самый крупный в мире бесплатный архив песенных текстов, аккордов, табулатур и нот


Betty Curse - Beautiful Together - таба, видео

Регистрация Запомнить меня
Войти через:  Facebook Google Twitter Vk Yandex Mail.ru

Betty Curse - Beautiful Together - таба, видео

Печатать
Просмотров: 115
i updated this tab on 20th December 2008, it's a bit better now... 

CHORUS
E|-8-----8-----8---8-----8-----8---8-----8-----8---8-----8-----8---|
B|-8-8-8-8-8-8-8-8-8-5-5-5-5-5-5-5-8-8-8-8-8-8-8-8-8-5-5-5-5-5-5-5-|
G|-5-5-5-5-5-5-5-5-5-5-5-5-5-5-5-5-5-5-5-5-5-5-5-5-5-5-5-5-5-5-5-5-|
D|-----------------------------------------------------------------|
A|-----------------------------------------------------------------|
E|-----------------------------------------------------------------|

E|-6-----6-----6---6-----6-----6---6-----6-----6---6-----6-----6---|
B|-6-6-6-6-6-6-6-6-6-3-3-3-3-3-3-3-6-6-6-6-6-6-6-6-6-3-3-3-3-3-3-3-|
G|-3-3-3-3-3-3-3-3-3-3-3-3-3-3-3-3-3-3-3-3-3-3-3-3-3-3-3-3-3-3-3-3-|
D|-----------------------------------------------------------------|
A|-----------------------------------------------------------------|
E|-----------------------------------------------------------------|

VERSE (palm mute this whole part)
E|---------------------------------------------------------------------|
B|---------------------------------------------------------------------|
G|---------------------------------------------------------------------|
D|-5-------------------------------------3-----------------------------|
A|-3(strum 16 times)--5(strum 16 times)--1(strum 16 times)-3 (16 times)|
E|--------------------3------------------------------------1-----------|

Thats pretty much it really. Good luck.
Добавлено: 19.05.2012
Другие материалы по этой песне:
  • Аккорды и текст

Страница создана 19.05.2012
http://primanota.ru/betty-curse/beautiful-together-chords.htm
Привет, Гость.
Предлагаем пройти революционный курс по гитаре.
Подарок от PrimaNota.Ru, забирай!