PrimaNota.ru - самый крупный в мире бесплатный архив песенных текстов, аккордов, табулатур и нот


Bettingfield Daniel - Just Gotta Get Through This - таба, видео

Регистрация Запомнить меня
Войти через:  Facebook Google Twitter Vk Yandex Mail.ru

Bettingfield Daniel - Just Gotta Get Through This - таба, видео

Печатать
Просмотров: 159
Daniel Bettingfield - Just gotta get through this
tabbed by: Brahm Neufeld - brahm_neufeld@hotmail.com
 
 ~intro/main riff~
e|---------------------|------------------------|
B|---------------------|------------------------|
G|---------------------|------------------------|
D|---------------------|------------------------|
A|-------6-------------|-----5-6----------------|
E|-3---------6-----6-5-|-3--------6---6-5-------|
 
e|---------------------|------------------------|
B|---------------------|------------------------|
G|---------------------|------------------------|
D|---------------------|------------------------|
A|-----5-6-------------|-----5-6----------------|
E|-3---------6-----6-5-|-3--------6---6-5-------|
 

 ~bridge~
e|---------------------------------------------|
B|---------------------------------------------|
G|---------------------------------------------|
D|---------------------------------------------|
A|------------------------------3--------------|
E|-3---3-3-5---5-5--6---6-6--6----6--5--3------|
 
e|---------------------------------------------|
B|---------------------------------------------|
G|---------------------------------------------|
D|---------------------------------------------|
A|---------------------------------------------|
E|-3---3-3-5---5-5--6---6-6--6--6--6--6--------|
 
repeat intro/main riff and brigde when nessecary
 
 ~chord version~not in the song~
e|---------------------|------------------------|
B|---------------------|------------------------|
G|-------8-------------|-----7-8----------------|
D|-5-----8---8-----8-7-|-5---7-8--8---8-7-------|
A|-5-----6---8-----8-7-|-5---5-6--8---8-7-------|
E|-3---------6-----6-5-|-3--------6---6-5-------|
 
e|---------------------|------------------------|
B|---------------------|------------------------|
G|-----7-8-------------|-----7-8----------------|
D|-5---7-8---8-----8-7-|-5---7-8--8---8-7-------|
A|-5---5-6---8-----8-7-|-5---5-6--8---8-7-------|
E|-3---------6-----6-5-|-3--------6---6-5-------|
 
 
 

I declare this tab to be my own work, tabbed out by ear.
comments and corrections are welcome.
-brahm

     
Добавлено: 22.10.2013
Другие материалы по этой песне:
  • Аккорды и текст

Страница создана 04.08.2013
http://primanota.ru/bettingfield-daniel/just-gotta-get-through-this-chords.htm
Привет, Гость.
Предлагаем пройти революционный курс по гитаре.
Подарок от PrimaNota.Ru, забирай!