PrimaNota.ru - самый крупный в мире бесплатный архив песенных текстов, аккордов, табулатур и нот


Better Than Ezra - Sincerely Me - аккорды и текст, таба, видео

Регистрация Запомнить меня
Войти через:  Facebook Google Twitter Vk Yandex Mail.ru

Better Than Ezra - Sincerely Me - аккорды и текст, таба, видео

Печатать
Просмотров: 144
Sincerely Me
Better Than Ezra
Band: Better Than Ezra
Song: Sincerely, Me
Album: Closer
tabbed by: David Biddle (creature@localh.com)

Standard tuning

Intro / Verse (palm mute)
|-----------------------------------------|
|-----------------------------------------|
|------------66666666----------77777777---|
|---77777777-66666666-44444444-77777777---|
|---77777777-44444444-44444444-55555555---|
|---55555555----------22222222------------|

Chorus (distortion)
|---------------------|
|---------------------|
|---------------------|
|---------------------|
|---77/1111\44/1212---|
|---55/-9-9\22/1010---|

Solo (distortion)
|-----------------------------------
|-----------------------------------
|---14-13-11-13-14-13-11-13-p16-p18- (x 3)
|-----------------------------------
|-----------------------------------
|-----------------------------------

                                 (repeat)
|---21\--19\--18\---------21~~---10-9-7-5---|
|------------------17-19--------------------|
|-------------------------------------------|
|-------------------------------------------|
|-------------------------------------------|
|-------------------------------------------|


closing
|------------|
|------------|
|-----7------|
|---7-7-7~---|
|---7-5-7~---|
|---5---5~---|

==================================================

Feel free to email me with any corrections or suggestions.  creature@localh.com
     
Добавлено: 12.06.2013
Другие материалы по этой песне:
  • Аккорды и текст

Страница создана 06.06.2012
http://primanota.ru/better-than-ezra/sincerely-me-chords.htm
Привет, Гость.
Предлагаем пройти революционный курс по гитаре.
Подарок от PrimaNota.Ru, забирай!