PrimaNota.ru - самый крупный в мире бесплатный архив песенных текстов, аккордов, табулатур и нот


Better Than Ezra - Rewind - аккорды и текст, таба, видео

Регистрация Запомнить меня
Войти через:  Facebook Google Twitter Vk Yandex Mail.ru

Better Than Ezra - Rewind - аккорды и текст, таба, видео

Печатать
Просмотров: 232
Уроки эстрадного вокала в Санкт-Петербурге
Авторы музыки: Kevin Griffin
Авторы текста: Kevin Griffin
Rewind
Better Than Ezra
		   Rewind by Better Than Ezra
Off the Friction, Baby album
(tabbed by randell@heinous.music.uiowa.edu)

** capo on 2nd **

Rhythm Figure 1: (hint, barre the A)
e---0-0-0-0-0-0-0-0---0-0-0-0-(0)--|---0-0-0-0-0-0-0-0---0-0-0-0-(0)-
B---2-2-2-2-2-2-0-0---0-0-0-0-(0)--|---2-2-2-2-2-2-0-0---0-0-0-0-(0)-
G---2-2-2-2-2-2-2-1---1-1-1-1-(1)--|---2-2-2-2-2-2-2-1---1-1-1-1-(1)-
D---2-2-2-2-2-2-2-2---2-2-2-2-(2)--|---2-2-2-2-2-2-2-2---2-2-2-2-(2)-
A---0-0-0-0-0-x-x-2---2-2-2-2-(2)--|---0-0-0-0-0-x-x-2---2-2-2-2-(2)-
E-------------4-4-0---2-2-0-0-(0)--|-------------4-4-0---2-2-0-0-(0)-

e--0-0-2-2-2-0-0----0--0----0-0-0-0-0-0-0---
B--3-3-3-3-3-3-0----0--0----0-0-0-0-0-0-0---
G--2-2-2-2-2-2-0h1--1--1----1-1-1-1-1-1-1--- (2nd time in verse
D--4-4-4-4-4-4-0h2--2--2----2-2-2-2-2-2-2---  repeat this last
A--0-0-0-0-0-0-0h2--2--2----2-2-2-2-2-2-2---  measure)
E-------------------0--0----0-0-0-0-0-0-0---

Rhythm Figure 2: (strum each about 8 times, I'm too lazy to type it)
e--0---0--0--0--0--0--0--0----
B--2---2--2--2--3--0--3--0----
G--2---2--2--2--2--1--2--1----
D--2---2--2--2--4--2--4--2----
A--0---x--x--0--0--2--0--2----
E------4--2--0-----0-----0----
(listen to the CD to get the strumming pattern)

Intro: First two bars of RF 1

Verse (Rhythm Fig 1):
Cut a tape of my favorite songs
Said what I can't face to face
I hoped that you would share all my thoughts
We are young and unimpressed,
with all you'd recognize.

Chorus (Rhythm Fig 2):
G play it all over
Turn it wide.
Now there is nothing but a
Mix tape left behind
Now it won't rewind

Verse (RF 1):
In my car we are superstars
Run you lipstick down your chin
While up ahead we saw such a crash
Right there a song became a soundtrack
for this space in time.

Chorus (RF 2):
G play it all over
Turn it wide.
Now there is nothing but a
Mix tape left behind
Now it won't rewind

Solo: RF 1 as if it was the second time through

Verse (RF 1):
Wonder is often lost
Jaded at such a cost
Time undermines you when you close your eyes.
We pass right by you.    -- neat distorted lyric (tm) :)

Chorus (RF 2):
G play it all over
Turn it wide.
Now there is nothing but a
Mix tape left behind
Now it won't rewind.
(repeat)     
Добавлено: 17.08.2013
Другие материалы по этой песне:
  • Аккорды и текст

Страница создана 21.03.2012
http://primanota.ru/better-than-ezra/rewind-chords.htm
Привет, Гость.
Предлагаем пройти революционный курс по гитаре.
Подарок от PrimaNota.Ru, забирай!