PrimaNota.ru - самый крупный в мире бесплатный архив песенных текстов, аккордов, табулатур и нот


Better Than Ezra - R3Wind - таба, видео

Регистрация Запомнить меня
Войти через:  Facebook Google Twitter Vk Yandex Mail.ru

Better Than Ezra - R3Wind - таба, видео

Печатать
Просмотров: 93
Song: "r3Wind" - (extract from the album "friction, baby")
Band: Better than Ezra 
Tabbed By: Alex G

A great and simple song from Better than Ezra extracted from the 
second album "Friction, baby" ! 

It kicks some serious ass ! 

Grab your guitar and jam. 


Standard tuning:
---------------- 

EADGBe 



Intro - Verse : (Main Theme)
--------------

Electric guitar with slight chorus
   
Finger picking or mediator
    C          
e|---------------------------------------------------------------------
b|--------------------------------------------------------------1------
g|------0-------0---------0-------0---------0-------0-------0-----0----  
d|----2---2---2---------4---4---4---------0---0---0--------2--2-----2-- 
a|--3-------3------3--5-------5------5--2-------2-----2--3------------3
E|---------------------------------------------------------------------


 Again and again 
 
Then for the rest of the song, just strum the chords instead of picking!  

Enjoy !   

     
Добавлено: 04.08.2013
Вам также может быть интересно:
Другие материалы по этой песне:
  • Аккорды и текст

Страница создана 04.08.2013
http://primanota.ru/better-than-ezra/r3wind-chords.htm
Привет, Гость.
Предлагаем пройти революционный курс по гитаре.
Подарок от PrimaNota.Ru, забирай!