PrimaNota.ru - самый крупный в мире бесплатный архив песенных текстов, аккордов, табулатур и нот


Better Off - Whatever I Dont Care - таба, видео

Регистрация Запомнить меня
Войти через:  Facebook Google Twitter Vk Yandex Mail.ru

Better Off - Whatever I Dont Care - таба, видео

Печатать
Просмотров: 90
-------------------------------------------------------------------------------
                             WHATEVER, I DON'T CARE - Better Off
-------------------------------------------------------------------------------
Tabbed by: Mike Wolfe
E-mail: mikewolfe182@gmail.com

Tuning: Half Step Down (Eb Ab Db Gb Bb eb)


Guitar 1: 

Intro:

e|--------------------------------------|
B|--------------------------------------|
G|------------------------9-------------|  x4
D|-5-5-5-5-5-5-5-5-101010-9-9-9-9-/-14--|
A|-5-5-5-5-5-5-5-5-101010-7-9-9-9-/-14--|
E|-3-3-3-3-3-3-3-3-8-8-8----7-7-7-/-12--|

Verse 1:

e|-------------------------------------|
B|-------------------------------------|
G|-------------------------------------|
D|-------------------------------------|  x8
A|-------------------------------------|
E|-3-3-3-3-3-3-3-3-8-8-8-8-7-7-7-/-12--|

Chorus: (the first chorus plays the first riff once and goes into the full chorus)

e|-----------------------------------------------------------------|
B|-----------------------------------------------------------------|
G|---------------------------------------------------9-9-9-9-9-9-9-|
D|-5-5-5-5-5-5-5-5-5-5-5-5-5-5-5-5-9-9-9-9-9-9-9-9-9-9-9-9-9-9-9-9-|
A|-5-5-5-5-5-5-5-5-5-5-5-5-5-5-5-5-9-9-9-9-9-9-9-9-9-7-7-7-7-7-7-7-|
E|-3-3-3-3-3-3-3-3-3-3-3-3-3-3-3-3-7-7-7-7-7-7-7-7-7---------------|  
                                                                       
e|-----------------------------------------------------------------|  
B|-----------------------------------------------------------------| 
G|-----------------------------------------------------------------|
D|-5-5-5-5-5-5-5-5-5-5-5-5-5-5-5-5-9-9-9-9-9-9-9-9-9-10101010101010|
A|-5-5-5-5-5-5-5-5-5-5-5-5-5-5-5-5-9-9-9-9-9-9-9-9-9-10101010101010|
E|-3-3-3-3-3-3-3-3-3-3-3-3-3-3-3-3-7-7-7-7-7-7-7-7-7-8-8-8-8-8-8-8-|

Verse 2:

e|-------------------------------------|
B|-------------------------------------|
G|-------------------------------------|
D|-------------------------------------|  x8
A|-------------------------------------|
E|-3-3-3-3-3-3-3-3-8-8-8-8-7-7-7-/-12--|

Chorus:

e|-----------------------------------------------------------------|
B|-----------------------------------------------------------------|
G|---------------------------------------------------9-9-9-9-9-9-9-|
D|-5-5-5-5-5-5-5-5-5-5-5-5-5-5-5-5-9-9-9-9-9-9-9-9-9-9-9-9-9-9-9-9-|
A|-5-5-5-5-5-5-5-5-5-5-5-5-5-5-5-5-9-9-9-9-9-9-9-9-9-7-7-7-7-7-7-7-| 
E|-3-3-3-3-3-3-3-3-3-3-3-3-3-3-3-3-7-7-7-7-7-7-7-7-7---------------|  
                                                                      
e|-----------------------------------------------------------------| 
B|-----------------------------------------------------------------| 
G|-----------------------------------------------------------------|
D|-5-5-5-5-5-5-5-5-5-5-5-5-5-5-5-5-9-9-9-9-9-9-9-9-9-10101010101010|
A|-5-5-5-5-5-5-5-5-5-5-5-5-5-5-5-5-9-9-9-9-9-9-9-9-9-10101010101010|
E|-3-3-3-3-3-3-3-3-3-3-3-3-3-3-3-3-7-7-7-7-7-7-7-7-7-8-8-8-8-8-8-8-|

Bridge:

e|-----------------------------------------------------------------|
B|-----------------------------------------------------------------|
G|---------------------------------------------------9-9-9-9-9-9-9-|
D|-5-5-5-5-5-5-5-5-5-5-5-5-5-5-5-5-9-9-9-9-9-9-9-9-9-9-9-9-9-9-9-9-|
A|-5-5-5-5-5-5-5-5-5-5-5-5-5-5-5-5-9-9-9-9-9-9-9-9-9-7-7-7-7-7-7-7-| 
E|-3-3-3-3-3-3-3-3-3-3-3-3-3-3-3-3-7-7-7-7-7-7-7-7-7---------------|  
                                                                       
e|-----------------------------------------------------------------|  
B|-----------------------------------------------------------------| 
G|-----------------------------------------------------------------|
D|-5-5-5-5-5-5-5-5-5-5-5-5-5-5-5-5-9-9-9-9-9-9-9-9-9-10101010101010|
A|-5-5-5-5-5-5-5-5-5-5-5-5-5-5-5-5-9-9-9-9-9-9-9-9-9-10101010101010|
E|-3-3-3-3-3-3-3-3-3-3-3-3-3-3-3-3-7-7-7-7-7-7-7-7-7-8-8-8-8-8-8-8-|

e|------------------------------------|-------------------------------------|
B|------------------------------------|-------------------------------------|
G|---------------x3-------------------|-------------------------------------|
D|------------------------------------|-------------------------9-9b-9b-9br-|
A|------------------------------------|-------------------------------------|
E|-3-3-3-3-3-3-3-3-8-8-8-8-7-7-7-/-12-|-3-3-3-3-3-3-3-3-8-8-8-8-------------|

Final Chorus:

e|-----------------------------------------------------------------|
B|-----------------------------------------------------------------|
G|---------------------------------------------------9-9-9-9-9-9-9-|
D|-5-5-5-5-5-5-5-5-5-5-5-5-5-5-5-5-9-9-9-9-9-9-9-9-9-9-9-9-9-9-9-9-|-
A|-5-5-5-5-5-5-5-5-5-5-5-5-5-5-5-5-9-9-9-9-9-9-9-9-9-7-7-7-7-7-7-7-| -
E|-3-3-3-3-3-3-3-3-3-3-3-3-3-3-3-3-7-7-7-7-7-7-7-7-7---------------|  -
                                                                       -  x2
e|-----------------------------------------------------------------|  -
B|-----------------------------------------------------------------| -
G|-----------------------------------------------------------------|-
D|-5-5-5-5-5-5-5-5-5-5-5-5-5-5-5-5-9-9-9-9-9-9-9-9-9-10101010101010|
A|-5-5-5-5-5-5-5-5-5-5-5-5-5-5-5-5-9-9-9-9-9-9-9-9-9-10101010101010|
E|-3-3-3-3-3-3-3-3-3-3-3-3-3-3-3-3-7-7-7-7-7-7-7-7-7-8-8-8-8-8-8-8-|

Guitar 2:

Intro:

e|--------------------------------------|
B|--------------------------------------|
G|------------------------9-------------|  x4
D|-5-5-5-5-5-5-5-5-101010-9-9-9-9-/-14--|
A|-5-5-5-5-5-5-5-5-101010-7-9-9-9-/-14--|
E|-3-3-3-3-3-3-3-3-8-8-8----7-7-7-/-12--|

Verse:

e|-----------------------------|
B|---0-------0--------------0--|
G|-------2-------2--------2----|
D|-5---5---5---5---5----5------|  x8
A|--------------------5--------|
E|-----------------------------|

Chorus:

e|-----------------------------------------------------------------|
B|-----------------------------------------------------------------|
G|---------------------------------------------------9-9-9-9-9-9-9-|
D|-5-5-5-5-5-5-5-5-5-5-5-5-5-5-5-5-9-9-9-9-9-9-9-9-9-9-9-9-9-9-9-9-|
A|-5-5-5-5-5-5-5-5-5-5-5-5-5-5-5-5-9-9-9-9-9-9-9-9-9-7-7-7-7-7-7-7-| 
E|-3-3-3-3-3-3-3-3-3-3-3-3-3-3-3-3-7-7-7-7-7-7-7-7-7---------------|  
                                                                      
e|-----------------------------------------------------------------| 
B|-----------------------------------------------------------------| 
G|-----------------------------------------------------------------|
D|-5-5-5-5-5-5-5-5-5-5-5-5-5-5-5-5-9-9-9-9-9-9-9-9-9-10101010101010|
A|-5-5-5-5-5-5-5-5-5-5-5-5-5-5-5-5-9-9-9-9-9-9-9-9-9-10101010101010|
E|-3-3-3-3-3-3-3-3-3-3-3-3-3-3-3-3-7-7-7-7-7-7-7-7-7-8-8-8-8-8-8-8-|

Verse:

e|-----------------------------|
B|---0-------0--------------0--|
G|-------2-------2--------2----|
D|-5---5---5---5---5----5------|  x8
A|--------------------5--------|
E|-----------------------------|

Chorus:

e|-----------------------------------------------------------------|
B|-----------------------------------------------------------------|
G|---------------------------------------------------9-9-9-9-9-9-9-|
D|-5-5-5-5-5-5-5-5-5-5-5-5-5-5-5-5-9-9-9-9-9-9-9-9-9-9-9-9-9-9-9-9-|
A|-5-5-5-5-5-5-5-5-5-5-5-5-5-5-5-5-9-9-9-9-9-9-9-9-9-7-7-7-7-7-7-7-| 
E|-3-3-3-3-3-3-3-3-3-3-3-3-3-3-3-3-7-7-7-7-7-7-7-7-7---------------|  
                                                                      
e|-----------------------------------------------------------------| 
B|-----------------------------------------------------------------| 
G|-----------------------------------------------------------------|
D|-5-5-5-5-5-5-5-5-5-5-5-5-5-5-5-5-9-9-9-9-9-9-9-9-9-10101010101010|
A|-5-5-5-5-5-5-5-5-5-5-5-5-5-5-5-5-9-9-9-9-9-9-9-9-9-10101010101010|
E|-3-3-3-3-3-3-3-3-3-3-3-3-3-3-3-3-7-7-7-7-7-7-7-7-7-8-8-8-8-8-8-8-|

Solo:

e|---------------------------------------------------------------------------------------------------|
B|---------------------------------------------------------------------------------------------------|
G|-12--------12-14p12-11-------------------12-------12-14p12-11-----------17-17-17-17-16-17-16-14-12-|
D|-------12-----------------14-13br----10--------12----------------14-13-----------------------------|
A|---------------------------------------------------------------------------------------------------|
E|---------------------------------------------------------------------------------------------------|

Final Chorus:

e|-----------------------------------------------------------------|
B|-----------------------------------------------------------------|
G|---------------------------------------------------9-9-9-9-9-9-9-|
D|-5-5-5-5-5-5-5-5-5-5-5-5-5-5-5-5-9-9-9-9-9-9-9-9-9-9-9-9-9-9-9-9-|-
A|-5-5-5-5-5-5-5-5-5-5-5-5-5-5-5-5-9-9-9-9-9-9-9-9-9-7-7-7-7-7-7-7-| -
E|-3-3-3-3-3-3-3-3-3-3-3-3-3-3-3-3-7-7-7-7-7-7-7-7-7---------------|  -
                                                                       -  x2
e|-----------------------------------------------------------------|  -
B|-----------------------------------------------------------------| -
G|-----------------------------------------------------------------|-
D|-5-5-5-5-5-5-5-5-5-5-5-5-5-5-5-5-9-9-9-9-9-9-9-9-9-10101010101010|
A|-5-5-5-5-5-5-5-5-5-5-5-5-5-5-5-5-9-9-9-9-9-9-9-9-9-10101010101010|
E|-3-3-3-3-3-3-3-3-3-3-3-3-3-3-3-3-7-7-7-7-7-7-7-7-7-8-8-8-8-8-8-8-|



************************************

| /   slide up
| \   slide down
| h   hammer-on
| p   pull-off
| ~   vibrato
| +   harmonic
| x   Mute note
| b   Bend
| pb  Pre-bend
| br  Bend release
| pbr Pre-bend release
| brb Bend release bend

************************************
Добавлено: 31.05.2016
Другие материалы по этой песне:
  • Аккорды и текст

Страница создана 31.05.2016
http://primanota.ru/better-off/whatever-i-dont-care-chords.htm
Привет, Гость.
Предлагаем пройти революционный курс по гитаре.
Подарок от PrimaNota.Ru, забирай!