PrimaNota.ru - самый крупный в мире бесплатный архив песенных текстов, аккордов, табулатур и нот


Better Off - The Price Is Never Right - аккорды и текст, видео

Регистрация Запомнить меня
Войти через:  Facebook Google Twitter Vk Yandex Mail.ru

Better Off - The Price Is Never Right - аккорды и текст, видео

Печатать
Просмотров: 142
Уроки эстрадного вокала в Санкт-Петербурге
The Price Is Never Right
Better Off
Tuning: ½ step down

       Cm                   Ab               Eb           Eb7 (omit 3rd)
eb|-----0-----|     eb|-----0-----|   eb|-----0-----|   eb|-----0-----|
Bb|-----x-----|     Bb|-----x-----|   Bb|-----x-----|   Bb|-----x-----|
Gb|-----4-----|     Gb|-----2-----|   Gb|-----9-----|   Gb|-----9-----|
Db|-----2-----|     Db|-----2-----|   Db|-----9-----|   Db|-----9-----|
Ab|-----4-----|     Ab|-----0-----|   Ab|-----7-----|   Ab|-----6-----|
Eb|-----------|     Eb|-----------|   Eb|-----------|   Eb|-----------|

Intro:
Cm  Ab  Cm  Ab  Bb (3x)

Verse 1:

Cm     Ab
Clean the shelf of dust and things we've done

Cm     Ab
I'm always asking if the summer will ever come

Cm     Ab
And when the warm sun leaves hints on my skin

Cm     Ab
I feel only heat and wish the winter would come again

Pre Chorus:

Cm  Ab
A leap of faith

Cm  Ab
A constant mistake we never make

Cm  Ab
A sweet routine

Cm  Ab
One day I will gladly leave everything

Chorus:

Cm      Ab
All my thoughts say
Eb               Eb7
"Please stay inside, just today
Cm                   Ab                 Eb           Eb7
Cause you're so fragile lately, and no one is holding on to say:
Cm                  Ab                       Eb                      Eb7
Can you tell me now if we've figured out what to do with all our wasted time?
Cm         Ab
I'll see dark days for the rest of my life
Eb                   Eb7
And I don't need to go outside."

Interlude:
Cm  Ab  Cm  Ab  Bb (2x)

Verse 2:

Cm    Ab
Two years and nothing to show

Cm   Ab
     Wet scars, chilled to the bone

Cm   Ab
     Sore and tired, battered and bruised

Cm   Ab
     And I'm still waiting for your barrel to burn

Pre Chorus:

Cm  Ab
A leap of faith

Cm  Ab
A constant mistake we never make

Cm  Ab
A sweet routine

Cm  Ab
One day I will gladly leave everything


Chorus:
Cm      Ab
All my thoughts say
Eb               Eb7
"Please stay inside, just today
Cm                   Ab                 Eb           Eb7
Cause you're so fragile lately, and no one is holding on to say:
Cm                  Ab                       Eb                      Eb7
Can you tell me now if we've figured out what to do with all our wasted time?
Cm         Ab
I'll see dark days for the rest of my life
Eb                   Eb7
And I don't need to go outside."

Ending:
Cm  Cm  Cm  Cm  Ab (Listen to the song for the rhythm)

Interlude Tab:
eb|---0-2-4-2-0----------0--0-0-0-0--0-2-4-2-0--------0-0-0-0-0-0-4-5-4-----|
Bb|----------------4-5---5--5-5-4-4--------------4-5--5-5-5-4-4-5-----------|
Gb|--------------4-----------------------------4----------------------------|
Db|-------------------------------------------------------------------------|
Ab|-------------------------------------------------------------------------|
Eb|-------------------------------------------------------------------------|

Pre Chorus Tab:
eb|-------------------------------------------------------------------------|
Bb|-------------------------------------------------------------------------|
Gb|-------4-------9-----------9-----------4---------------------------------|
Db|-----2---2--------7-----6-----6-----2-----2------------------------------|
Ab|---4---------0-------0-----------0---------------------------------------|
Eb|-------------------------------------------------------------------------|
Добавлено: 31.05.2016
Другие материалы по этой песне:
  • Аккорды и текст

Страница создана 31.05.2016
http://primanota.ru/better-off/price-is-never-right-chords.htm
Привет, Гость.
Предлагаем пройти революционный курс по гитаре.
Подарок от PrimaNota.Ru, забирай!