PrimaNota.ru - самый крупный в мире бесплатный архив песенных текстов, аккордов, табулатур и нот


Bettens, Sarah - Dont Stop - таба, бас-таба, видео

Регистрация Запомнить меня
Войти через:  Facebook Google Twitter Vk Yandex Mail.ru

Bettens, Sarah - Dont Stop - таба, бас-таба, видео

Печатать
Просмотров: 145


Bb                 Bb/A
------------------|-----------------|
------------------|-----------------|
------3-----3-----|-----3-----3-----|
----3-----3-----3-|---3-----3-----3-|
------------------|-----------------|
--6-----6-----6---|-5-----5-----5---|


Bb/G#              Bb/G
------------------|-----------------|
------------------|-----------------|
------3-----3-----|-----3-----3-----|
----3-----3-----3-|---3-----3-----3-|
------------------|-----------------|
--4-----4-----4---|-3-----3-----3---|


cm                 cm/B
------------------|-----------------|
------------------|-----------------|
------5-----5-----|-----5-----5-----|
----5-----5-----5-|---5-----5-----5-|
--3-----3-----3---|-2-----2-----2---|
------------------|-----------------|


cm/Bb              F
------------------|-----------------|
------------------|-----------------|
------5-----5-----|-----2-----2-----|
----5-----5-----5-|---3-----3-----3-|
--1-----1-----1---|-----------------|
------------------|-1-----1-----1---|

(repeat this tabs the whole song)

Bb
don't stop trying
	Bb/A
there's always a reason
    Bb/G#
to go on living
     Bb/G                  cm
as long as you can breathe
		cm/B
stay clear of extremes
                             cm/Bb
just say what you mean
		    F
but try not to be mean

you should say thank you often
like your hair
wave to strangers everywhere
do what you're supposed to do
don't look at what the others do
think before you buy a car
don't marry someone you met at a bar
there's no such thing as going too far
love who you are

don't be scared of what's ahead
but wear a helmet to protect your head
be aware
say you care
don't say fair
stay close to the hands that raised you
watch for signs
never waste expensive wine
spoil your body
spoil yourself
never cheat and share your wealth

sing when you're glad
close the door if you sound bad
don't believe a man who knows he's right
don't skip ahead, enjoy your flight

be nice to your dog
drive slow in the fog
convince yourself to write a song
change clothes every day
call ahead when you're late
be safe when you are planning to get laid

read what you like
be on your brother's side
it's okay to wonder why
but don't expect to understand your life

don't expect to understand your life


Добавлено: 18.09.2013
Другие материалы по этой песне:
  • Аккорды и текст

Страница создана 24.07.2012
http://primanota.ru/bettens-sarah/dont-stop-chords.htm
Привет, Гость.
Предлагаем пройти революционный курс по гитаре.
Подарок от PrimaNota.Ru, забирай!