PrimaNota.ru - самый крупный в мире бесплатный архив песенных текстов, аккордов, табулатур и нот


Bettencourt, Nuno - The Bumblebee - аккорды и текст, таба, видео

Регистрация Запомнить меня
Войти через:  Facebook Google Twitter Vk Yandex Mail.ru

Bettencourt, Nuno - The Bumblebee - аккорды и текст, таба, видео

Печатать
Просмотров: 141
The Bumblebee
Bettencourt, Nuno
		   t. See http://www..net/faq/ for more information.                     #
#-----------------------------------------------------------------------------#


				BUMBLEBEE
			    By NUNO BETTENCOURT

Transcribed by Sócrates
 socrates@dreamtheater.zzn.com>

        This is one of the most beautiful pieces which
I have listened to from Nuno, it is a really pretty
composition.
        The composition is at 4/4, but don't made the
correct separation of the compasses. It is a very slow
composition and easy to perform, but it gets one quick
portion which could create you some difficulties.
There is a portion from which I am not very certain
that it be alright, but the rest I think that is
right.
        However, this is the basic idea of the
composition, since Nuno uses a lot the bar in some
portions to descend a few the tones, but I didn't
denote those portions in the tab. If you are able to
do any arrangement, or if I have been mistaken in
anything, please send me your version, I will be you
very grateful.
	This composition performs with a Delay and Tune your
guitar at D#

Have fun:)

Legend:

^       = pull-off & hamer-on
~~~     = vibrato
x       = dead note
1 o ½   = bend 1 o ½ tone
1- o ½- = bend & release 1 o ½ tone
+1 o +½ = prebend 1 o ½ tone
/	= slide up
\	= slide down
\\	= gliss down
//      = gliss up
 >  	= artificial harmonic
.....   = palm mute

     ~~~~~~~                ~~~~~~~~               ~~~~     1  1- ~~~~~~
|----------------|------------------|-------------------|-----------------|
|/17----------\\-|-17-17^15-15\\----|--13^15-15\13--13--|----15-15-15-----|
|----------------|------------------|-------------------|--x--------------|
|----------------|------------------|-------------------|-x---------------|
|----------------|------------------|-------------------|-----------------|
|----------------|------------------|-------------------|-----------------|

     1                     1               ½-     ~~~~     1
|-17--------------------------------|---17-19-^17--19--|----22--20^17-----|
|----15--15-15-15^17^13-------13\\--|--x---------------|-22---------------|
|-----------------------14^12-------|-x----------------|------------------|
|-----------------------------------|------------------|------------------|
|-----------------------------------|------------------|------------------|
|-----------------------------------|------------------|------------------|


From here to the mark, I am not very sure that it be
alright. The Delay
hinders a lot the work to the hearing.
  |===> ½-                                                  1     +1-
|-21---^17--------17^15--------|-------------------|------15--------------|
|-----------20^17-------17^15--|-17^15-------15----|----15----15----------|
|------------------------------|-------17^14-------|--14------------------|
|------------------------------|-------------------|-x--------------------|
|------------------------------|-------------------|----------------------|
|------------------------------|-------------------|----------------------|

     1-    .  .    .  .  .  .  .  .  .  .  .  .
|----------------|-------------------------------|------------------------|
|----13----13----|-15----17----16----15----13----|-15^13------------------|
|--14---14----14-|----14----14----14----14----14-|-------14-12-14^12---12-|
|-x--------------|-------------------------------|-------------------14---|
|----------------|-------------------------------|------------------------|
|----------------|-------------------------------|------------------------|

                                ~~~~ Make a motorcycle with your bar ===|
|-----------------------------------|-------------------------------------|
|-----------------------------------|-------------------------------------|
|-----------------------------------|-------------------------------------|
|-14-13-12-13-14-13-12--------------|-4-----------------------------------|
|----------------------15-14-12-11--|-4-----------------------------------|
|-----------------------------------|-4-----------------------------------|

   ~~~~~~~~~~             1-             ~~~~~        ~~~~~~~~~~~~
|----------------------|-----------------------|-17-15-17-15-17\----------|
|-/10-----12^13-13/15--|--13-^12--13^12--------|--------------------------|
|----------------------|-----------------14----|--------------------------|
|----------------------|-----------------------|--------------------------|
|----------------------|-----------------------|--------------------------|
|----------------------|-----------------------|--------------------------|

        1   ½- ½-                      ~~~~
|--------------------------|-----17-19-20--|-17---19^17-15---15--17^15-13-|
|-13-15-15--17--------\----|-/17-----------|------------------------------|
|--------------------------|---------------|------------------------------|
|--------------------------|---------------|------------------------------|
|--------------------------|---------------|------------------------------|
|--------------------------|---------------|------------------------------|

                    ~~     ~~~~~~~~                ~~~~~~~~~~~~~~~~~~~~~
|-12--10-10-10-8----------|--------------------|--------------------------|
|-----------------12-10-8-|-13-13------ 13>\\--|-8-8-17-17----------------|
|-------------------------|--------------------|--------------------------|
|-------------------------|--------------------|--------------------------|
|-------------------------|--------------------|--------------------------|
|-------------------------|--------------------|--------------------------|

           1      ~~~      1                         |--------------------|----------------------------|-----------------------|
|-17-18-20-18--18-18-|-----18-18-20-21---18^17-17-|---17--18^17-17^15-15--|
|--------------------|--17------------------------|-----------------------|
|--------------------|----------------------------|-17--------------------|
|--------------------|----------------------------|-----------------------|
|--------------------|----------------------------|-----------------------|

     1-  ~~~~~~~
|---------------||
|-15------------||
|----17--17-----||
|---------------||
|---------------||
|---------------||     
Добавлено: 25.09.2013
Другие материалы по этой песне:
  • Аккорды и текст

Страница создана 01.06.2012
http://primanota.ru/bettencourt-nuno/the-bumblebee-chords.htm
Привет, Гость.
Предлагаем пройти революционный курс по гитаре.
Подарок от PrimaNota.Ru, забирай!