PrimaNota.ru - самый крупный в мире бесплатный архив песенных текстов, аккордов, табулатур и нот


Bettencourt, Nuno - Schizophonic - таба, видео

Регистрация Запомнить меня
Войти через:  Facebook Google Twitter Vk Yandex Mail.ru

Bettencourt, Nuno - Schizophonic - таба, видео

Печатать
Просмотров: 86
                 SCHIZOPHONIC
                 ¬¬¬¬¬¬¬¬¬¬¬¬


Here it is, the Schizo-solo-phonic album
by Extreme's (Get The Funk Out, More Than Words,
Hole Hearted, Kid Ego?) top-shit guitarist...

enjoy


*************************************************

 Gravity 

Tune Down 1/2 Step 

 I've had my fun 
 Had my day in the sun
 Now my body's the map 
 of a cracked Arizona

|--------------|---------------|--------------------|------------------|
|--------------|*--------------|-------------------*|------------------|
|---2-2-2------|---------------|--------------------|------------------|
|---2-2-2------|---p-----p-----|--}---------2-------|---p-------p----}-|
|---0-0-0--0-0-|*-3^0-0-5^0--0-|-5---5-3-0--0--0-0-*|--3^0--0--5^0--5--|
|--------------|---------------|--------------------|------------------|

 
 Time running out 
 And I'm melting away
 Melting away 
 I'm a human candle

|--------------|---------------|--------------------|------------------|
|--------------|*--------------|-------------------*|------------------|
|---2-2-2------|---------------|--------------------|------------------|
|---2-2-2------|---p-----p-----|--}---------2-------|---p-------p----}-|
|---0-0-0--0-0-|*-3^0-0-5^0--0-|-5---5-3-0--0--0-0-*|--3^0--0--5^0--5--|
|--------------|---------------|--------------------|------------------|

  If you see   me    coming,      start  runnin         I'm the one      you love

    A5       E5   C5        C5      E5    D5       D5     E5     F5         F5        C5    G5
|-----------------------|----------------------|------------------------|-----------------------|
|-----------------------|----------------------|------------------------|----------------------*|
|--2---2--2--9-9\--5-5--|---5--5-5--9-9\--7-7--|---7--7-7-9--9/--10-10--|---10--10-10--5--------|
|--2---2--2--9-9\--5-5--|---5--5-5--9-9\--7-7--|---7--7-7-9--9/--10-10--|---10--10-10--5----5-5-|
|--0---0--0--7-7\--3-3--|---3--3-3--7-7\--5-5--|---5--5-5-7--7/--8--8---|---8---8--8--x3----5-5*|
|-----------------------|----------------------|------------------------|-----------------x-3-3-|

              If you see   me    cryin        start  lyin'    I'm the one            you    love

    A5       E5   C5        C5      E5    D5       D5     E5     F5         F5        C5    G5
|-----------------------|----------------------|------------------------|-----------------------|
|-----------------------|----------------------|------------------------|----------------------*|
|--2---2--2--9-9\--5-5--|---5--5-5--9-9\--7-7--|---7--7-7-9--9/--10-10--|---10--10-10--5--------|
|--2---2--2--9-9\--5-5--|---5--5-5--9-9\--7-7--|---7--7-7-9--9/--10-10--|---10--10-10--5----5-5-|
|--0---0--0--7-7\--3-3--|---3--3-3--7-7\--5-5--|---5--5-5-7--7/--8--8---|---8---8--8--x3----5-5*|
|-----------------------|----------------------|------------------------|-----------------x-3-3-|

 

 Failing to plead 
 With a throat full of dust
 Life falls asleep 
 In a fetal position

|--------------|---------------|--------------------|------------------|
|--------------|*--------------|-------------------*|------------------|
|---2-2-2------|---------------|--------------------|------------------|
|---2-2-2------|---p-----p-----|--}---------2-------|---p-------p----}-|
|---0-0-0--0-0-|*-3^0-0-5^0--0-|-5---5-3-0--0--0-0-*|--3^0--0--5^0--5--|
|--------------|---------------|--------------------|------------------|

 My skull is an egg 
 Like a flash in the pan
 A heavenly meal
 For the animal angels

|--------------|---------------|--------------------|------------------|
|--------------|*--------------|-------------------*|------------------|
|---2-2-2------|---------------|--------------------|------------------|
|---2-2-2------|---p-----p-----|--}---------2-------|---p-------p----}-|
|---0-0-0--0-0-|*-3^0-0-5^0--0-|-5---5-3-0--0--0-0-*|--3^0--0--5^0--5--|
|--------------|---------------|--------------------|------------------|

  If you see   me    coming,      start  runnin         I'm the one      you love

    A5       E5   C5        C5      E5    D5       D5     E5     F5         F5        C5    G5
|-----------------------|----------------------|------------------------|-----------------------|
|-----------------------|----------------------|------------------------|----------------------*|
|--2---2--2--9-9\--5-5--|---5--5-5--9-9\--7-7--|---7--7-7-9--9/--10-10--|---10--10-10--5--------|
|--2---2--2--9-9\--5-5--|---5--5-5--9-9\--7-7--|---7--7-7-9--9/--10-10--|---10--10-10--5----5-5-|
|--0---0--0--7-7\--3-3--|---3--3-3--7-7\--5-5--|---5--5-5-7--7/--8--8---|---8---8--8--x3----5-5*|
|-----------------------|----------------------|------------------------|-----------------x-3-3-|

              If you see   me    cryin        start  lyin'    I'm the one            you    love

    A5       E5   C5        C5      E5    D5       D5     E5     F5         F5        C5    G5
|-----------------------|----------------------|------------------------|-----------------------|
|-----------------------|----------------------|------------------------|----------------------*|
|--2---2--2--9-9\--5-5--|---5--5-5--9-9\--7-7--|---7--7-7-9--9/--10-10--|---10--10-10--5--------|
|--2---2--2--9-9\--5-5--|---5--5-5--9-9\--7-7--|---7--7-7-9--9/--10-10--|---10--10-10--5----5-5-|
|--0---0--0--7-7\--3-3--|---3--3-3--7-7\--5-5--|---5--5-5-7--7/--8--8---|---8---8--8--x3----5-5*|
|-----------------------|----------------------|------------------------|-----------------x-3-3-|

  Gravity          pulls       my       face            pulls   my     skin

   C                                   G              

|------------------------------------|------------------------------------|
|------------------------------------|------------------------------------|
|-7-7-7-7--7-7-7-7--7-7-7-7--7-7-7-7-|-7-7-7-7--7-7-7-7--7-7-7-7--7-7-7-7-|
|-5-5-5-5--5-5-5-5--5-5-5-5--5-5-5-5-|-5-5-5-5--5-5-5-5--5-5-5-5--5-5-5-5-|
|------------------------------------|------------------------------------|
|------------------------------------|------------------------------------|
|                                                                         |
|                                                                         |
|                                                                         |
|                                                                         |
|------------------------------------|------------------------------------|
|------------------------------------|------------------------------------|
|----------0----------0-0-0--0---0-0-|--------------0------0-0-0--0-0-0-0-|
|--------------0---------------------|----------0-------------------------|
|-3----------------------------------|------------------------------------|
|------------------------------------|-3----------------------------------|

                                        Gravity               why      so

  A7                                   C              

|-3-3-3-3--3---3-3------3-3----3-3-3-|------------------------------------|
|-2-2-2-2--2---2-2------2-2----2-2-2-|------------------------------------|
|-2-2-2-2--2---2-2------2-2----2-2-2-|-7-7-7-7--7-7-7-7--7-7-7-7--7-7-7-7-|
|-2-2-2-2--2---2-2------2-2----2-2-2-|-5-5-5-5--5-5-5-5--5-5-5-5--5-5-5-5-|
|------------------------------------|------------------------------------|
|------------------------------------|------------------------------------|
|                                                                         |
|                                                                         |
|                                                                         |
|                                                                         |
|------------------------------------|------------------------------------|
|------------------------------------|------------------------------------|
|----------0-0-----------------------|--------------0------0-0-0--0-0-0-0-|
|--------------2--------2-2--2-2-2-2-|----------0-------------------------|
|-0----------------------------------|-3----------------------------------|
|------------------------------------|------------------------------------|

  soon         what's    the  rush

 G                                     A7

|------------------------------------|-3-3-3-3--3---3-3------3-3----3-3-3-|
|------------------------------------|-2-2-2-2--2---2-2------2-2----2-2-2-|
|-7-7-7-7--7-7-7-7--7-7-7-7--7-7-7-7-|-2-2-2-2--2---2-2------2-2----2-2-2-|
|-5-5-5-5--5-5-5-5--5-5-5-5--5-5-5-5-|-2-2-2-2--2---2-2------2-2----2-2-2-|
|------------------------------------|------------------------------------|
|------------------------------------|------------------------------------|
|                                                                         |
|                                                                         |
|                                                                         |
|                                                                         |
|------------------------------------|------------------------------------|
|------------------------------------|------------------------------------|
|--------------0------0-0-0--0-0-0-0-|----------0-0-----------------------|
|----------0-------------------------|--------------2--------2-2--2-2-2-2-|
|------------------------------------|-0----------------------------------|
|-3----------------------------------|------------------------------------|

     Gravity       pulls         me      down           underground

  C                                    G              

|------------------------------------|------------------------------------|
|------------------------------------|------------------------------------|
|-7-7-7-7--7-7-7-7--7-7-7-7--7-7-7-7-|-7-7-7-7--7-7-7-7--7-7-7-7--7-7-7-7-|
|-5-5-5-5--5-5-5-5--5-5-5-5--5-5-5-5-|-5-5-5-5--5-5-5-5--5-5-5-5--5-5-5-5-|
|------------------------------------|------------------------------------|
|------------------------------------|------------------------------------|
|                                                                         |
|                                                                         |
|                                                                         |
|                                                                         |
|------------------------------------|------------------------------------|
|------------------------------------|------------------------------------|
|----------0----------0-0-0--0---0-0-|--------------0------0-0-0--0-0-0-0-|
|--------------0---------------------|----------0-------------------------|
|-3----------------------------------|------------------------------------|
|------------------------------------|-3----------------------------------|

                                         Gravity            hunt        me

  A7                                   C              

|-3-3-3-3--3---3-3------3-3----3-3-3-|------------------------------------|
|-2-2-2-2--2---2-2------2-2----2-2-2-|------------------------------------|
|-2-2-2-2--2---2-2------2-2----2-2-2-|-7-7-7-7--7-7-7-7--7-7-7-7--7-7-7-7-|
|-2-2-2-2--2---2-2------2-2----2-2-2-|-5-5-5-5--5-5-5-5--5-5-5-5--5-5-5-5-|
|------------------------------------|------------------------------------|
|------------------------------------|------------------------------------|
|                                                                         |
|                                                                         |
|                                                                         |
|                                                                         |
|------------------------------------|------------------------------------|
|------------------------------------|------------------------------------|
|----------0-0-----------------------|--------------0------0-0-0--0-0-0-0-|
|--------------2--------2-2--2-2-2-2-|----------0-------------------------|
|-0----------------------------------|-3----------------------------------|
|------------------------------------|------------------------------------|

        down     make    the

 G                                    

|------------------------------------|
|------------------------------------|
|-7-7-7-7--7-7-7-7--7-7-7-7--7-7-7-7-|
|-5-5-5-5--5-5-5-5--5-5-5-5--5-5-5-5-|
|------------------------------------|
|------------------------------------|
|                                    |                              
|                                    |                            
|                                    |                          
|                                    |                                 
|------------------------------------|
|------------------------------------|
|--------------0------0-0-0--0-0-0-0-|
|----------0-------------------------|
|------------------------------------|
|-3----------------------------------|

Guitar Solo

  kill

|-------------------|---------------5--------|------------------|-------------------------------|
|--}--------}-------|--}---------)-----------|--}--------}------|--}---}-{-P---sl-----6---------|
|-7---7--5-7---H--5-|-7----7--5-7---------5--|-7---7--5-7-----5-|-7---7---7^5-7/9--5----x-5-x-x-|
|-------------5^7---|------------------7-----|-------------7----|-------------------------------|
|-------------------|------------------------|------------------|-------------------------------|
|-------------------|------------------------|------------------|-------------------------------|

|--5--5--5--5-5-5--------------|--5--5--5-5--------------------|
|--5--5--5--5-5-5--P----7-7-5--|--5--5--5-5--P----7-7-5--7-7-5-|
|--8--8--8--8-8-8-7^5---7-7-5--|--8--8--8-8-7^5---7-7-5--7-7-5-|
|---------------------7--------|----------------7--------------|
|------------------------------|-------------------------------|
|------------------------------|-------------------------------|

|-------5-----------5-----------5-----------5----------5-----------5-----------|
|--H-H-----P-P-H-H-----P-H-P-H-----P-P-H-H----P-P-H-H-----P-P-H-H-----P-P-H-H--|
|-5^7^8---8^7^5^7^8---8^7^5^7^8---8^7^5^7^8--8^7^5^7^8---8^7^5^7^8---8^7^5^7^8-|
|------------------------------------------------------------------------------|
|------------------------------------------------------------------------------|
|------------------------------------------------------------------------------|

|-5-----------5-----------5-----------5----------5------------|
|----P-P-H-H-----P-P-H-H-----P-P-H-H-----P-P-H-H--------------|
|---8^7^5^7^8---8^7^5^7^8---8^7^5^7^8---8^7^5^7^8-------------|
|-------------------------------------------------------------|
|------------------------------------------------------X\-----|
|-------------------------------------------------------------|

 

Rhythm behind solo
    A      G                 D/F#

|-------------------------|-------------------------------------|
|*------------------------|------------------------------------*|
|-------------------------|-------------------------------------|
|-------------------------|--------------P-----P-----}----------|
|*-0--0--0----------------|-------------3^0-0-5^0--0-5---5-3-0-*|
|----------3--3-3--3--3-3-|-2--2--2--2--------------------------|

 

   If you see   me    coming,      start  runnin         I'm the one      you love

     A5       E5   C5        C5      E5    D5       D5     E5     F5         F5        C5    G5
 |-----------------------|----------------------|------------------------|-----------------------|
 |-----------------------|----------------------|------------------------|----------------------*|
 |--2---2--2--9-9\--5-5--|---5--5-5--9-9\--7-7--|---7--7-7-9--9/--10-10--|---10--10-10--5--------|
 |--2---2--2--9-9\--5-5--|---5--5-5--9-9\--7-7--|---7--7-7-9--9/--10-10--|---10--10-10--5----5-5-|
 |--0---0--0--7-7\--3-3--|---3--3-3--7-7\--5-5--|---5--5-5-7--7/--8--8---|---8---8--8--x3----5-5*|
 |-----------------------|----------------------|------------------------|-----------------x-3-3-|

               If you see   me    cryin        start  lyin'    I'm the one            you    love

     A5       E5   C5        C5      E5    D5       D5     E5     F5         F5        C5    G5
 |-----------------------|----------------------|------------------------|-----------------------|
 |-----------------------|----------------------|------------------------|----------------------*|
 |--2---2--2--9-9\--5-5--|---5--5-5--9-9\--7-7--|---7--7-7-9--9/--10-10--|---10--10-10--5--------|
 |--2---2--2--9-9\--5-5--|---5--5-5--9-9\--7-7--|---7--7-7-9--9/--10-10--|---10--10-10--5----5-5-|
 |--0---0--0--7-7\--3-3--|---3--3-3--7-7\--5-5--|---5--5-5-7--7/--8--8---|---8---8--8--x3----5-5*|
 |-----------------------|----------------------|------------------------|-----------------x-3-3-|

I'm the one you love

(Drum Loops and Cool stuff here)

Outro

|-------------------|--------------------------------|
|-------------------|--------------------------------|
|-------------------|---2-2-2------------------------|
|---p-------p-----}-|---2-2-2---------p-----p------}-|
|--3^0--0--5^0-0-5--|---0-0-0--0-0--3^0-0-5^0--0--5--|
|-------------------|--------------------------------|

                       7X
|--------------------------------|
|*------------------------------*|
|--------------------------------|
|---------2-------p-----p-----}--|
|*-5-3-0--0--0-0-3^0-0-5^0-0-5--*|
|--------------------------------|

Lead Guitar Part

    1/2                               4X
|--------|-------------------------------|
|-----)--|*---------------------------)-*|
|----7---|-7-5-----------5-----7-----7---|
|--------|-----7--7--7-7---7-7---7-7-----|
|--------|*-----------------------------*|
|--------|-------------------------------|


==============

Swollen Princess 

Tune Down 1 Step 

 

Intro & Verses 
(2 Guitars) 
                                                                                                                                      
|-----|-------------------|---------------------|-------------------|-----------------------|
|-----|*------------------|---------------------|-------------------|----------------------*|
|-----|-------------------|---------------------|-------------------|-----------------------|
|-----|-------------------|---------------------|-------------------|-----------3--3--3--5--|
|-----|*-----1------------|------1-----P--------|------1----4-------|------1---------------*|
|-3-3-|-3--3---3--3---3-3-|-3--3---3--3^1---3-3-|-3--3---3------3-3-|-3--3---3--------------|

 
|-----------------------|-----------------------|
|-----------------------|-----------------------|
|-----------------------|-----------------------|
|-----------3--3--5--5--|-----------3--3--3--0--|
|------1----------------|------1----------------|
|----3---3--------------|----3---3--------------|

Pre-Chorus

  D                D/C#              Bm7               Bb      D/C
|-----------------|-----------------|-----------------|-----------------|
|-3-3-3-3-3-3-3-3-|-3-3-3-3-3-3-3-3-|-3-3-3-3-3-3-3-3-|-3-3-3-3-3-3-3-3-|
|-2-2-2-2-2-2-2-2-|-2-2-2-2-2-2-2-2-|-2-2-2-2-2-2-2-2-|-2-2-2-2-2-2-2-2-|
|-0-0-0-0-0-0-0-0-|-----------------|-----------------|-----------------|
|-----------------|-4-4-4-4-4-4-4-4-|-2-2-2-2-2-2-2-2-|-1-1-1-1-3-3-3-3-|
|-----------------|-----------------|-----------------|-----------------|

 D                 C#                B                 Bb      A
|-----------------|-----------------|-----------------|--------------------|
|-----------------|-----------------|-----------------|--------------------|
|-7-7-7-7-7-7-7-7-|-6-6-6-6-6-6-6-6-|-4-4-4-4-4-4-4-4-|-3-3-3--14-14-14----|
|-----------------|-----------------|-----------------|--------------------|
|-5-5-5-5-5-5-5-5-|-4-4-4-4-4-4-4-4-|-2-2-2-2-2-2-2-2-|-1-1-1--12-12-12----|
|-----------------|-----------------|-----------------|--------------------|

Chorus

  G           D                   Em             C
|---------------|----------------|-----------------|-----------------|
|---------------|----------------|-----------------|-----------------|
|-------------7-|--7-7-7-7-7-7-7-|-9---9---9-9-9-5-|--5--5---5-5-5-5-|
|-5-5-5-5-5-5-7-|--7-7-7-7-7-7-7-|-9---9---9-9-9-5-|--5--5---5-5-5-5-|
|-5-5-5-5-5-5-5-|--5-5-5-5-5-5-5-|-7---7---7-7-7-3-|--3--3---3-3-3-3-|
|-3-3-3-3-3-3---|----------------|-----------------|-----------------|

 G           Eb                    G             D
|---------------|----------------|-----------------|----------------|
|---------------|----------------|-----------------|----------------|
|-------------8-|--8-8---8---8-8-|---------------7-|--7-7---7-7-7-7-|
|-5--5--5-5-5-8-|--8-8---8---8-8-|-5---5---5-5-5-7-|--7-7---7-7-7-7-|
|-5--5--5-5-5-6-|--6-6---6---6-6-|-5---5---5-5-5-5-|--5-5---5-5-5-5-|
|-3--3--3-3-3---|----------------|-3---3---3-3-3---|----------------|

  Em           C                    A                 Ab
|-----------------|----------------|-----------------|-----------------|
|-----------------|----------------|-----------------|-----------------|
|-9---9--9-9---5--|--5-5---5-5-5---|-----------------|-----------------|
|-9---9--9-9---5--|--5-5---5-5-5---|-7-7-7-7-7-7-7-7-|-6-6-6-6-6-6-6-6-|
|-7---7--7-7---3--|--3-3---3-3-3---|-7-7-7-7-7-7-7-7-|-6-6-6-6-6-6-6-6-|
|-----------------|----------------|-5-5-5-5-5-5-5-5-|-4-4-4-4-4-4-4-4-|
|                                                                      |
|                                                                      |
|Guitar 2                                                              |
|-----------------|----------------|-----------------|-----------------|
|-----------------|----------------|-----------------|-----------------|
|-----------------|----------------|---6-------------|---5-------------|
|-----------------|----------------|-------5---------|-------4---------|
|-----------------|----------------|-7---------7-----|-6---------6-----|
|-----------------|----------------|-----------------|-----------------|

Both Guitars                          A                Ab
|-----------------|-----------------|----------------|-----------------|
|-----------------|-----------------|----------------|-----------------|
|-----------------|-----------------|----------------|-----------------|
|-----------------|-----------------|-7-7-7----------|-6-6-6-----------|
|-----------------|-----------------|-7-7-7----------|-6-6-6-----------|
|-3---3---0-3-0-3-|--0-3---0-3--0---|-5-5-5----------|-4-4-4-------3-3-|

3rd Verse Melody

|------------8-|------7-------|----------------|---------------|
|----8--6------|--6-----6-----|----8------8----|--5------5-----|
|---------7----|----7-----7---|--------6-------|------------7--|
|-5------------|------------5-|--5-----------5-|------5--------|
|--------------|--------------|----------------|---------------|
|--------------|--------------|----------------|---------------|

|------------8-|------7-------|----------------|---------------|
|----8--6------|--6-----6-----|-----8-----8--8-|----------5----|
|---------7----|----7-----7---|---7-----6------|--6---7------7-|
|-5------------|------------5-|-5-----5--------|---------------|
|--------------|--------------|----------------|---------------|
|--------------|--------------|----------------|---------------|

|---------------8-|------7-------|-----------------|---------------|
|-----8-8--6------|--6------6----|-----8---8----8--|--------5------|
|---7--------7----|----7------7--|---7-------6-----|--6--7-----7-5-|
|-5---------------|--------------|-5---------------|---------------|
|-----------------|--------------|-----------------|---------------|
|-----------------|--------------|-----------------|---------------|

Guitar Solo 

|-------|-------------------------------------------|
|-------|-------------------------------------------|
|-------|-------14-19-14----------14-19-14----------|
|-16-17-|-16-17----------17-16-17----------17----17-|
|-------|-------------------------------------16----|
|-------|-------------------------------------------|

|-------------------------------------------------|
|-------------------------------------------------|
|-------14-19-14----------------14-19-14----------|
|----17----------17-16-17-16-17----------17----17-|
|-16----------------------------------------14----|
|-------------------------------------------------|

|-------------------------------------------------|
|-------------------------------------------------|
|-------14-19-14----------------14-19-14----------|
|----17----------17-16-17-16-17----------17-15-17-|
|-14----------------------------------------------|
|-------------------------------------------------|

|------------------------------------------------|
|------------------------------------------------|
|-15------------H--P-sl--H--------H-------H------|
|----19-17-15-19^17^15\14^15----14^15---14^15----|
|------------------------------------------------|
|------------------------------------------------|

|-------------------------------------|
|-------------------------------------|
|---H------H------H------H------------|
|-14^15--16^17--16^17--16^17-17-16-17-|
|-------------------------------------|
|-------------------------------------|

|-------------------------------------------------|
|-------------------------------------------------|
|-------------------------------------------------|
|---P-----H-----H------P-----P-------P--H-----H---|
|-17^16-17^16-17^16--17^16-17^16---17^16^17-16^17-|
|-------------------------------------------------|

|----------------------------------------|
|----------------------------------------|
|----------------------------------------|
|--sl------P------P-----P--------P-------|
|-16\14--16^14--16^14-16^14----16^14-----|
|----------------------------------------|

Outro Chorus

Guitar 2
                 If I tell___________ you all the truth
|----------------------_|__________--------------------|
|------}~~~~~~~~------}-|----------{-------------------|
|-12-14-------------14--|-----------14-12-11---12--14--|
|-----------------------|------------------------------|
|-----------------------|------------------------------|
|-----------------------|------------------------------|

          would you
|----___________---------|-------------------|
|---}-----------{--P--P--|-H-----------------|
|-12-------------12^11^9-|-^11~~~~~~~~~~~----|
|------------------------|-------------------|
|------------------------|-------------------|
|------------------------|-------------------|

Guitar 1

  G           D                   Em             C
|---------------|----------------|-----------------|-----------------|
|---------------|----------------|-----------------|-----------------|
|-------------7-|--7-7-7-7-7-7-7-|-9---9---9-9-9-5-|--5--5---5-5-5-5-|
|-5-5-5-5-5-5-7-|--7-7-7-7-7-7-7-|-9---9---9-9-9-5-|--5--5---5-5-5-5-|
|-5-5-5-5-5-5-5-|--5-5-5-5-5-5-5-|-7---7---7-7-7-3-|--3--3---3-3-3-3-|
|-3-3-3-3-3-3---|----------------|-----------------|-----------------|

 G           Eb                    G             D
|---------------|----------------|-----------------|----------------|
|---------------|----------------|-----------------|----------------|
|-------------8-|--8-8---8---8-8-|---------------7-|--7-7---7-7-7-7-|
|-5--5--5-5-5-8-|--8-8---8---8-8-|-5---5---5-5-5-7-|--7-7---7-7-7-7-|
|-5--5--5-5-5-6-|--6-6---6---6-6-|-5---5---5-5-5-5-|--5-5---5-5-5-5-|
|-3--3--3-3-3---|----------------|-3---3---3-3-3---|----------------|

  Em           C                    A                 Ab
|-----------------|----------------|-----------------|-----------------|
|-----------------|----------------|-----------------|-----------------|
|-9---9--9-9---5--|--5-5---5-5-5---|-----------------|-----------------|
|-9---9--9-9---5--|--5-5---5-5-5---|-7-7-7-7-7-7-7-7-|-6-6-6-6-6-6-6-6-|
|-7---7--7-7---3--|--3-3---3-3-3---|-7-7-7-7-7-7-7-7-|-6-6-6-6-6-6-6-6-|
|-----------------|----------------|-5-5-5-5-5-5-5-5-|-4-4-4-4-4-4-4-4-|
|                                                                      |
|                                                                      |
|Guitar 2                                                              |
|-----------------|----------------|-----------------|-----------------|
|-----------------|----------------|-----------------|-----------------|
|-----------------|----------------|---6-------------|---5-------------|
|-----------------|----------------|-------5---------|-------4---------|
|-----------------|----------------|-7---------7-----|-6---------6-----|
|-----------------|----------------|-----------------|-----------------|

                                      A                Ab
|-----------------|-----------------|----------------|-----------------|
|-----------------|-----------------|----------------|-----------------|
|-----------------|-----------------|----------------|-----------------|
|-----------------|-----------------|-7-7-7----------|-6-6-6-----------|
|-----------------|-----------------|-7-7-7----------|-6-6-6-----------|
|-3---3---0-3-0-3-|--0-3---0-3--0---|-5-5-5----------|-4-4-4-----------|
|                                                                      |
|                                                                      |
|                                                                      |
|                                                                      |  
|-----------------|-----------------|----------------|-----------------|
|-----------------|-----------------|----------------|-----------------|
|-----------------|-----------------|----------------|-----------------|
|-5---5-----5---5-|----5-----5------|-7-7-7----------|-6-6-6-----------|
|---------7---7---|--7-----7----7---|-7-7-7----------|-6-6-6-----------|
|-----------------|-----------------|-5-5-5----------|-4-4-4-----------|

 G           
|----------------||
|----------------||
|----------------||
|-5--------------||
|-5--------------||
|-3--------------||

=====================

Crave 

Tune Down 1/2 Step 
  

Verse


right house
   F       Dm              Am           Bb                F        Dm             Am         Bb 
|------------------------|-----------------------------|------------------------|------------------------------|
|*-----------------------|-----------------------------|------------------------|------------------------------|
|------------------------|------5----------------------|-----------------7------|------5---5-------------------|
|------x-x--7-----7--7-5-|---------0--3----sl--3-sl----|-------x-5--7----7--x-x-|------7---5-3-3-3---sl--3-5-3-|
|*---------5--5----------|-------------x-x-3/5---5\3-1-|--------------5---------|------------------1-3/5-------|
|------------------------|-----------------------------|------------------------|------------------------------|

 finally found     
   F           Dm             Am        Bb                   F        Am              Bb  
|---------------------------|-----------------------------|------------------------|---------------------------|
|---------------------------|-----------------------------|------------------1-----|---------------------------|
|-------5------------7------|-----------------------------|-------0----------------|---------------------------|
|-------5---5--7-7---7--7-5-|-----2-0--3-3-3--sl--3-sl----|-------0-------------2--|-3--3---3--3-3-3-3-3-3-3---|
|---------------------------|----------1-1-1--3/5---5\3-1-|----3-----0-0--0--------|----1---1--1-1-1-1-1-1-1-0-|
|---------------------------|-----------------------------|------------------------|---------------------------|

Chorus

       your eyes
  F           A             Dm          Bb         F              Ab             G         Gb
|-------------------------|----------------------|-----------------------------|-----------------------|
|-------------------5---5-|------6---6--------3--|----------------------4--4-4-|-----------------------|
|-------2---2-------6---6-|------7---7--------3--|--------2---2---------5--5-5-|-------4---------3--3--|
|-------3---3-------7---7-|-7----7---7--3--3--3--|--------3---3---------6--6-6-|-------5---------4--4--|
|-3--3--3---3--7-7--------|-5-----------1--1-----|-3--3---3---3---6--6--6--6-6-|-5--5--5---4--4--4--4--|
|-1--1---------5-5--------|----------------------|-1--1-----------4--4---------|-3--3------2--2--------|

                                                                                _______________________
                                                                               |1.                
  F           A             Dm           Bb           F           A              Dm        Bb
|-------------------------|-------------------------|--------------------------|-----------------------|
|-------------------5---5-|------6--6-6--------3--3-|--------------------------|-6---6----------------*|
|-------2-----------6---6-|-7--7-7--7-7--3--3--3--3-|-------2--2--------6--6-6-|-7---7------3----------|
|-------3-----------7---7-|-7--7-7--7-7--3--3--3--3-|-------3--3--------7--7-7-|-7---7------3----------|
|-3--3--3-----7-7---------|-5--5---------1--1-------|-3--3--3--3--7--7--7--7-7-|-5---5----x-1---------*|
|-1--1--------5-5---------|-------------------------|-1--1--------5--5---------|-----------------------|

 
                  
 ___________________
|2.                                     2/4 Time       4/4 Time
                       H                   H                  H
|------------3------|-3^5----3------3---|-3^5------3--|-(3)-----3^5------3--|
|-6---6-------------|-----6-------------|----------6--|-(6)---------6----6--|
|-7---7------3------|-3------3----3---3-|-------3--5--|-(5)--5--------5--3--|
|-7---7-------------|-----3-----3-------|-----3----3--|-(3)-----------------|
|-5---5-------------|-------------------|-------------|---------------------|
|-------------------|-------------------|-------------|---------------------|




Bridge
                H                         H                     H                             H
|-(3)-----3----3^5------3-|------3-------3^5------3--|-(3)-----3^5------3--|-(3)-----3-------3^5------3-|
|-(6)-------------------6-|------------------6----6--|-(6)---------6----6--|-(6)-------6---------6----6-|
|-(3)----------------3--3-|----------3---------3--5--|-(5)--5--------5--3--|-(3)---------3---------3--3-|
|------3-----3-----3------|--------3---3----------3--|-(3)-----------------|------3--------3------------|
|-------------------------|--------------------------|---------------------|----------------------------|
|-------------------------|--------------------------|---------------------|----------------------------|
|                                                                                                       |
|                                                                                                       | 
|Lead Guitar                                                                                            |
|                                                                                                       |
|           Feedback                                            <                           <           |
|-------------------------|---------------------------|--------------------|----------------------------|
|-------------------------|---------------------------|--------------------|----------------------------|
|--------------3----------|---------------------------|---------2----------|-----------------3----------|
|-------------------------|---------------------------|--------------------|----------------------------|
|-------------------------|---------------------------|--------------------|----------------------------|
|-------------------------|---------------------------|--------------------|----------------------------|

                H                                               H                             H
|-(3)----3----3^5------3-|-(3)---3-------3----3--|-(3)--3---3^5------3--|-(3)-----3-------3^5----3-3--3-|
|-(6)-------------6----6-|-(6)-----6----------6--|-(6)----6-----6----6--|-(6)-------6---------6--6-6--6-|
|-(3)----3----------3--5-|-(5)--------5-------3--|-(3)------------3--3--|-(3)---------3-------3--3-3--3-|
|-----------3----------3-|-(3)-------------------|-------------------3--|-(3)--3--------3---------------|
|------------------------|-----------------------|----------------------|-------------------------------|
|------------------------|-----------------------|----------------------|-------------------------------|
|                                                                                                       |
|                                                                                                       | 
|Lead Guitar                                                                                            |
|                                                                                                       |
|              <                 <                                                                      |
|-------------------------|----------------------|----------------------|-------------------------------|
|-------------------------|----------------------|----------------------|-------------------------------|
|--------------5----------|------2---------------|-----------3---5------|-------------------------------|
|-------------------------|----------------------|----------------------|-------------------------------|
|-------------------------|----------------------|----------------------|-------------------------------|
|-------------------------|----------------------|----------------------|-------------------------------|

Guitar Solo

|-----13-13-----13-13-----11-11----11-11-|----6-6----6-6--6---------------------|
|---}-13-13---}-13-13---}-11-11--}-11-11-|--}-6-6--}-6-6--}6--------------------|
|-12--------12--------10-------10--------|-5------5-------5--3---}--------------|
|----------------------------------------|----------------------5-(5)-3---------|
|----------------------------------------|-------------------------------}------|
|----------------------------------------|------------------------------3-(3)-1-|

|----------------------------|---------------------------|
|----------------------------|---------------------------|
|----------------1/2--R------|-------------------sl------|
|-----------------}---{-P----|--H----P----3--5-5-5/7--8--|
|--------sl--3---5-----5^3-3-|-3^5--5^3-5----------------|
|-1---1--3/5---5-------------|---------------------------|

|-----------------------------------------------------10--P---------------|
|-------------------------------------------------H-----13^10--10--P------|
|--P-H--sl---10---------------------sl--10--12--10^12--------13--13^12-10-|
|-7^5^7-8/11---12- P--P--H--H--10--12/13--12--12--------------------------|
|----------------13^12^10^12^13-------------------------------------------|
|-------------------------------------------------------------------------|

|------------------------P---------------------------------------------------|
|-------H-----11-12-13-12^11--11-----P---------------------------------------|
|-12--10^12-13--------------13--13-12^10--10--10-----------------------------|
|---12----------------------------------12--12--12-10--10--------------------|
|----------------------------------------------------12--11-12--12\10---8----|
|-------------------------------------------------------------13----------10-|

|---------------------------------------|------------------------|
|---------------------------------------|------------------------|
|------------------ sl------------------|---H------sl-----sl-----|
|-------sl--10----10/12--12^13^12^10-10-|-10^12-----\10---8\7~~~~|
|--8--10/12----12-----------------------|------------------------|
|---------------------------------------|------------------------|

Outro Chorus

   body craves your touch
  Bb         C        Dm     Eb sus2        Gm             C          F
|-------------------|-5---5---------------|-3--3---3--3-3-----------|-1--------|
|-3---3-3---5---5-5-|-6---6---6----6--6-6-|-3--3---3--3-3--5--5---5-|-1--------|
|-3---3-3---5---5-5-|-7---7---8----8--8-8-|-3--3---3--3-3--5--5---5-|-2--------|
|-3---3-3---5---5-5-|-7---7---8----8--8-8-|-5--5---5--5-5--5--5---5-|-3--------|
|-1---1-1---3---3-3-|-5---5---6----6--6-6-|-5--5---5--5-5--3--3---3-|-3--------|
|-------------------|---------------------|-3--3---3--3-3-----------|-1--------|

       
  F    A    Dm  Bb    F     Ab    G   Gb      
|-1----5--|-5-------|-1-------|-3-------|
|-1----5--|-6----3--|-1----4--|-3-------|
|-2----6--|-7----3--|-2----5--|-4----3--|
|-3----7--|-7----3--|-3----6--|-5----4--|
|-3----7--|-5----1--|-3----6--|-5----4--|
|-1----5--|---------|-1----4--|-3----2--|

       
      
  F    A    Dm   Bb   F    A    Dm   Bb
|-1----5--|-5-------|-1----5--|---------|
|-1----5--|-6----3--|-1----5--|-6-------|
|-2----6--|-7----3--|-2----6--|-7----3--|
|-3----7--|-7----3--|-3----7--|-7----3--|
|-3----7--|-5----1--|-3----7--|-5----1--|
|-1----5--|---------|-1----5--|---------|

 

=====================

What You Want 

Tuning 

Eb 
Bb 
Gb 
Db 
Ab 
Eb 

  

Intro & Verses

 |---------------|--------2---3---|-----------------|--------2---3--|
 |---------------|--------3---3---|---h-------------|--------3---3--|
 |---2---2---2---|--x-x---2---0---|--0^2----2---2---|--x-x---2---0--|
 |---2-x-2---2---|--x-x-------0---|--0^2--x-2-x-2---|--x-x---0---0--|
 |---0-x-0-0-0---|--x-x-------2---|-------x-0-x-0---|--x-x-------2--|
 |---------------|------------3---|-----------------|------------3--|

 

 |----------------|--------2---3---|-----------------|-----------2---3--|
 |---h------------|--------3---3---|---h-------------|-----------3---3--|
 |--0^2---2---2---|--x-x---2---0---|--0^2----2---2---|--2-2-2-2--2---0--|
 |--0^2-x-2---2---|--x-x-------0---|--0^2--x-2-x-2---|--2-2-2-2--0---0--|
 |------x-0-0-0---|--x-x-------2---|-------x-0-x-0---|--0-0-0-0------2--|
 |----------------|------------3---|-----------------|---------------3--|

                                                                   3x

 |----------------|--------2---3---|-----------------|--------2---3--|
 |*--h------------|--------3---3---|---h-------------|--------3---3-*|
 |--0^2---2---2---|--x-x---2---0---|--0^2----2---2---|--x-x---2---0--|
 |--0^2-x-2---2---|--x-x-------0---|--0^2--x-2-x-2---|--x-x---0---0--|
 |*-----x-0-0-0---|--x-x-------2---|-------x-0-x-0---|--x-x-------2-*|
 |----------------|------------3---|-----------------|------------3--|

 

 |----------------|--------2---3---|-----------------|-----------------|
 |---h------------|--------3---3---|---h-------------|-----------------|
 |--0^2---2---2---|--x-x---2---0---|--0^2----2---2---|--2-2-2-2--2--2--|
 |--0^2-x-2---2---|--x-x-------0---|--0^2--x-2-x-2---|--2-2-2-2--2--2--|
 |------x-0-0-0---|--x-x-------2---|-------x-0-x-0---|--0-0-0-0--0--0--|
 |----------------|------------3---|-----------------|-----------------|

Chorus

  C Maj 7    G      Asus2  FMaj7(4?) G        Dm9       F5

 |--0-----|--3------|---------0----|--3-----|--0-----|-(3)----|
 |--0-----|--3------|---0-----0----|--3-----|--6-----|--6-----|
 |--0-----|--0------|---2-----2----|--0-----|--7-----|--5-----|
 |--2-----|--0------|---2-----3----|--0-----|--7-----|--3-----|
 |--3-----|--2------|---0-----3----|--2-----|--5-----|--------|
 |--------|--3------|---------1----|--3-----|--------|--------|

    F   D/F#    G      D

 |--1----2---|--3------2-2-2-|
 |--1----3---|--3------3-3-3-|
 |--2----2---|--0------2-2-2-|
 |--3----0---|--0------0-0-0-|
 |--3--------|--2------------|
 |--1----2---|--3------------|

Bridge

    D5  A5  D5  A5      D5  A5  E5

 |-------------------|--------------|
 |*------------------|-------------*|
 |-------------------|--------------|
 |--12--7---12--7-7--|--12--7---14--|
 |*-12--7---12--7-7--|--12--7---14-*|
 |--10--5---10--5-5--|--10--5---12--|

Solo

 |---------------|------------|-----------------|------------|
 |---------------|------------|-----------------|------------|
 |---------------|------------|-----------------|------------|
 |-7-5---5---5---|-5-5--7-----|-5-5---5-5---5---|-5-5--7--5--|
 |-----7---7---7-|---------3--|-----7-----7---7-|------------|
 |---------------|------------|-----------------|------------|

 
 |-----------------|------------|--------------------|----------------|
 |-----------------|------------|-------p----p-------|---------p------|
 |-----------------|------------|-7b---7^5--7^5---p--|-7b--7b-7^5-----|
 |-5-5---5-5---5---|-5-5--7-----|----------------7^5-|------------7^5-|
 |-----7-----7---7-|---------3--|--------------------|----------------|
 |-----------------|------------|--------------------|----------------|

                         repeat a lot

 |--------------------|--------p------|-------p-------------|--------------p---|
 |--------8--------h--|-19b--19^17----|-19b-19^17---p---20b-|-20b-20-17--20^17-|
 |-7b--7b---7b-7--5^7-|------------19-|-----------19^17-----|------------------|
 |--------------------|---------------|---------------------|------------------|
 |--------------------|---------------|---------------------|------------------|
 |--------------------|---------------|---------------------|------------------|

 

 |---------|--------------p---|---p-----p---------|-------------------|
 |-20b-----|-20b-20-17--20^17-|-19^17-18^17----17-|---p--p------------|
 |---------|------------------|-------------20----|-20^19^17----19-17-|
 |---------|------------------|-------------------|----------19-------|
 |---------|------------------|-------------------|-------------------|
 |---------|------------------|-------------------|-------------------|

 
 |-----20---|--------|----------------|------------------------|
 |----------|-20-----|-19-19-17-------|------------------------|
 |-19b------|-19b----|-19-19-17-------|------------------------|
 |----------|--------|----------19-17-|------------------------|
 |----------|--------|----------------|-19-18-17--15-17----15b-|
 |----------|--------|----------------|-----------------17-----|

Outro

 |--------3-------|--------0--------|-------------------|
 |----3-----3---3-|----------3---3--|-------------------|
 |------0-----0---|---h--0-----0----|--------0-------0--|
 |----------------|--0^2------------|---h--0----h--0----|
 |----------------|-----------------|--0^2-----2^3------|
 |--3-------------|-----------------|-------------------|

 
 |------3-------|--------2--------|------------------------|
 |----3---3--3--|----3-----3---3--|------------------------|
 |----0---0-----|-----------------|------------p--0--p-p---|
 |--------------|--0---0-----0----|--0-----0--2^4---4^2^0--|
 |--------------|-----------------|----2-0-----------------|
 |--3-----------|-----------------|------------------------|

 |-------------|
 |*-----------*|
 |--0----------|
 |----4^2^0----|
 |*-----------*|
 |-------------|

Transcription by Andy Dena and Paul DePauw 
  

===========================
2 Weeks in Dizkneelande 

Tune Down 1/2 Step 

Intro
                             E         
|----------X-----|-----------------|
|----------------|-----------------|
|----------------|----------9-9-9--|
|----------------|----------9-9-9--|
|----------------|-X\-------7-7-7--|
|----------------|-----------------|

                                                                     ___________________
                                                   |1.2.3.
   E            B Bb A              Bb B C                  B Bb A              B Bb E 
|--------------------|--------------------|-----------------------|--------------------|
|*-------------------|--------------------|-----------------------|-------------------*|
|--------------------|--------------------|-----------------------|--------------------|
|--(9)-9-9-9-9-------|--------------------|-----------------------|-----------------9--|
|*-(7)-7-7-7-7-9-8-7-|-(7)-7-7-7-7-8-9-10-|-(10)10-10-10-10-9-8-7-|-(7)-7-7-7-7-8-9-7-*|
|--------------7-6-5-|-(5)-5-5-5-5-6-7--8-|-(8)-8--8--8--8--7-6-5-|-(5)-5-5-5-5-6-7----|

  ________________________
 |4.
   B       G     Bb          F
|-----------------|-------------------|
|-----------------|-------------------|
|-----------------|-------------------|
|-----------------|-------------------|
|-(9)-9---5--5--8-|-(8)-8---3---3-----|
|-(7)-7---3--3--6-|-(6)-6---1---1---0-|

Verses                                                             

                                                             
|-------------------|-----------------|-----------------|-----------------|
|*------------------|-----------------|-----------------|-----------------|
|-------------------|-----------------|-----------------|-----------------|
|-------------------|-----------------|-----------------|-----------------|
|*------------------|-----------------|-----------------|-----------------|
|-(0)-0-0-0-0-0-0-0-|-0-0-0-0-0-0-0-0-|-0-0-0-0-0-0-0-0-|-0-0-0-0-0-0-0-0-|

                                   G       A        G          A     G
|-----------------|-----------------|-------------------|----------------|
|-----------------|-----------------|-------------------|----------------|
|-----------------|-----------------|-------------------|----------------| 
|-----------------|-----------------|-------------------|----------------|
|-----------------|---------------5-|-(5)-7--7--7--5--5-|-(5)-7--7--5----|
|-0-0-0-0-0-0-0-0-|-0-0-0-0-0-0-0-3-|-(3)-5--5--5--3--3-|-(3)-5--5--3--0-|

|-------------------|-----------------|-----------------|-----------------|
|-------------------|-----------------|-----------------|-----------------|
|-------------------|-----------------|-----------------|-----------------|
|-------------------|-----------------|-----------------|-----------------|
|-------------------|-----------------|-----------------|-----------------|
|-(0)-0-0-0-0-0-0-0-|-0-0-0-0-0-0-0-0-|-0-0-0-0-0-0-0-0-|-0-0-0-0-0-0-0-0-|

                                                     Help   
                                   G       A        G          A     G  E
|-----------------|-----------------|-------------------|-----------------|
|-----------------|-----------------|-------------------|-----------------|
|-----------------|-----------------|-------------------|---------------9-| 
|-----------------|-----------------|-------------------|---------------9-|
|-----------------|---------------5-|-(5)-7--7--7--5--5-|-(5)-7--7--5---7-|
|-0-0-0-0-0-0-0-0-|-0-0-0-0-0-0-0-3-|-(3)-5--5--5--3--3-|-(3)-5--5--3-----|

     me        Help me
  E            B Bb A              Bb B C                  B Bb A              B Bb E 
|--------------------|--------------------|-----------------------|--------------------|
|--------------------|--------------------|-----------------------|--------------------|
|--------------------|--------------------|-----------------------|--------------------|
|--(9)-9-9-9-9-------|--------------------|-----------------------|-----------------9--|
|--(7)-7-7-7-7-9-8-7-|-(7)-7-7-7-7-8-9-10-|-(10)10-10-10-10-9-8-7-|-(7)-7-7-7-7-8-9-7--|
|--------------7-6-5-|-(5)-5-5-5-5-6-7--8-|-(8)-8--8--8--8--7-6-5-|-(5)-5-5-5-5-6-7----|

  ______________
 |1.                                     Back to begining of Verse                                                      
   E            B Bb A              Bb B C                  B Bb A              B Bb E 
|--------------------|--------------------|-----------------------|--------------------|
|--------------------|--------------------|-----------------------|-------------------*|
|--------------------|--------------------|-----------------------|--------------------|
|--(9)-9-9-9-9-------|--------------------|-----------------------|--------------------|
|--(7)-7-7-7-7-9-8-7-|-(7)-7-7-7-7-8-9-10-|-(10)10-10-10-10-9-8-7-|-(7)-7-7-7-7-8-9---*|
|--------------7-6-5-|-(5)-5-5-5-5-6-7--8-|-(8)-8--8--8--8--7-6-5-|-(5)-5-5-5-5-6-7--0-|

  ______________
 |2.                  
   E            B Bb A              Bb B C                  B Bb A              B Bb E 
|--------------------|--------------------|-----------------------|--------------------|
|--------------------|--------------------|-----------------------|--------------------|
|--------------------|--------------------|-----------------------|--------------------|
|--(9)-9-9-9-9-------|--------------------|-----------------------|-----------------9--|
|--(7)-7-7-7-7-9-8-7-|-(7)-7-7-7-7-8-9-10-|-(10)10-10-10-10-9-8-7-|-(7)-7-7-7-7-8-9-7--|
|--------------7-6-5-|-(5)-5-5-5-5-6-7--8-|-(8)-8--8--8--8--7-6-5-|-(5)-5-5-5-5-6-7----|

  E            B Bb A              Bb B C                  B Bb A              B Bb E 
|--------------------|--------------------|-----------------------|--------------------|
|--------------------|--------------------|-----------------------|--------------------|
|--------------------|--------------------|-----------------------|--------------------|
|--(9)-9-9-9-9-------|--------------------|-----------------------|-----------------9--|
|--(7)-7-7-7-7-9-8-7-|-(7)-7-7-7-7-8-9-10-|-(10)10-10-10-10-9-8-7-|-(7)-7-7-7-7-8-9-7--|
|--------------7-6-5-|-(5)-5-5-5-5-6-7--8-|-(8)-8--8--8--8--7-6-5-|-(5)-5-5-5-5-6-7----|

   E            B Bb A              Bb B C          C  G      Bb         Bb  F            
|--------------------|--------------------|-----------------------|--------------------|
|--------------------|--------------------|-----------------------|--------------------|
|--------------------|--------------------|-----------------------|--------------------|
|--(9)-9-9-9-9-------|--------------------|-----------------------|--------------------|
|--(7)-7-7-7-7-9-8-7-|-(7)-7-7-7-7-8-9-10-|-(10)--10--5---5---8---|-(8)--8--3----3-----|
|--------------7-6-5-|-(5)-5-5-5-5-6-7--8-|-(8)---8---3---3---6---|-(6)--6--1----1---0-|

   E      Eb  D  Db  C    B    Bb  A     G  Gb     E      Eb  D  Db  C    B    Bb  A     G  Gb  
|----------------------|------------------------|----------------------|------------------------|
|----------------------|------------------------|----------------------|------------------------|
|----------------------|------------------------|----------------------|------------------------|
|-----9--8---7--6------|------------------------|-----9--8---7--6------|------------------------|
|-----7--6---5--4---10-|-9-----8--7-----5--4----|-----7--6---5--4---10-|-9-----8--7-----5--4----|
|-(0)------0------0-8--|-7--0--6--5--0--3--2--0-|-(0)------0------0-8--|-7--0--6--5--0--3--2--0-|

  E      Eb  D  Db  C    B    Bb  A     G  Gb     E      Eb  D  Db  C    B    Bb  A     G  Gb  
|----------------------|------------------------|----------------------|------------------------|
|----------------------|------------------------|----------------------|------------------------|
|----------------------|------------------------|----------------------|------------------------|
|-----9--8---7--6------|------------------------|-----9--8---7--6------|------------------------|
|-----7--6---5--4---10-|-9-----8--7-----5--4----|-----7--6---5--4---10-|-9-----8--7-----5--4----|
|-(0)------0------0-8--|-7--0--6--5--0--3--2--0-|-(0)------0------0-8--|-7--0--6--5--0--3--2--0-|

Guitar Solo

|-------------|-------------------|--------------------|------------------------|
|----------9--|-(9)-9-9-9-9-9-9-8-|-(8)-8-8-8-8-8-8-11-|-(11)-11-11-11-11-11-11-|
|-------9--9--|-(9)-9-9-9-9-9-9-6-|-(6)-6-6-6-6-6-6-9--|-(9)--9--9--9--9--9--9--|
|-------9-----|-------------------|--------------------|------------------------|
|-------------|-------------------|--------------------|------------------------|
|-------------|-------------------|--------------------|------------------------|


                                         Unison Bends
|-------------------------|------------------}-|------------------------------}-|
|-(11)-11-11-11-11-10-9-8-|-(8)-8-8-8-8----12}-|-(12)--12--12--12--12--12---10}-|
|-(9)--9--9--9--9--8--7-6-|-(6)-6-6-6-6----14--|-(14)--14--14--14--14--14---12--|
|-------------------------|--------------------|--------------------------------|
|-------------------------|--------------------|--------------------------------|
|-------------------------|--------------------|--------------------------------|

                    Unison Bends                                           P
|---------------------------}-|----------------------------}-|----------------16^12--|
|-(10)----10--10--10--10--8-}-|-(8)--8---8---8---8---8----5}-|-(5)-5--5--5-----------|
|-(12)----12--12--12--12--10--|-(10)-10--10--10--10--10---7--|-(7)-7--7--7-x/--------|
|-----------------------------|------------------------------|-----------------------|
|-----------------------------|------------------------------|-----------------------|
|-----------------------------|------------------------------|-----------------------|

     p           p           p     p           P      P            P           P           P
|-16^12---P---16^12---p---16^12-16^12---P---15^12-|-15^12---p---15^12---p---15^12---p---15^12---p---|
|-------15^12-------15^12-------------15^12-------|-------15^12-------15^12-------15^12-------15^12-|
|-------------------------------------------------|-------------------------------------------------| 
|-------------------------------------------------|-------------------------------------------------|
|-------------------------------------------------|-------------------------------------------------|
|-------------------------------------------------|-------------------------------------------------|


    P     P           P              P             H  P        H  P          tr      u.b.}
|-18^12-18^12---P---18^12---sl--17-19^17---P---|-17^18^17----17^18^17---P---17^18-----12}----|
|-------------15^12-------15/20----------20^17-|----------20----------20^17-----------15-----|
|----------------------------------------------|---------------------------------------------|
|----------------------------------------------|---------------------------------------------|
|----------------------------------------------|---------------------------------------------|
|----------------------------------------------|---------------------------------------------|



|-(12)---12----H----------|--------------------|-----------------------|------------------------|
|-(15)---12----^15----14--|--14------14----12--|---14---12----12---14--|---14---12--------------|
|---------------------14--|--14------14----12--|---14---12----12---14--|---14-------------------|
|-------------------------|--------------------|-----------------------|------------14--12--14\-|
|-------------------------|--------------------|-----------------------|------------------------|
|-------------------------|--------------------|-----------------------|------------------------|

  
  

=======================
Pursuit of Happiness 

3
4 TIME

Intro

           Em        D/F#    G                    Em        D/F#    G

|---------|----------------|---------------------|----------------|--------------3-----|
|---------|----------------|---------------------|-----------3----|-0-----0---------3--|
|-------0-|----0------2----|-0-----0-----------0-|----0--------2--|----0-----0---------|
|--H--0---|-------0-----0--|----0-----0---H--0---|-------0--------|--------------------|
|-0^2-----|----------------|-------------0^2-----|----------------|--------------2-----|
|---------|-0---------2----|-3-------------------|-0---------2----|-3------------------|

 G                  Cadd9       F        G                      C          F        G     

|------------3-----|-0-----------------|--------P-P-----------|-------------------|--------|
|-0-----0-------3--|----3--------------|----0--5^4^2-0--H--0--|-------------------|--------|
|----0-----0-------|-------0-----------|---------------0^2----|-------0--0--------|-0------|
|------------2-----|----------0------0-|----------------------|----0------------0-|-0------|
|------------------|-3-------------0---|----------------------|-3-------------0---|--------|
|-3----------------|------------1------|-3--------------------|------------1------|-3------|

Verse

*
  G           Dsus4 D   G            Dsus4 D    G           D/F#   Em       D/F#      
                P                      P                                         3X
|----3------3--3^2--3--|----3------3--3^2--3--|----3-----3--------|------------------|
|----3------3--3--3-3--|----3------3--3--3-3--|----3-----3-----3--|-------0------3--*|
|--------------2--2----|--------------2--2----|----------------2--|--------------2---|
|--------0------0------|--------0-----0-------|--------0----------|----4-------------|
|----------------------|----------------------|-------------------|-----------------*|
|-3----3---------------|-3----3---------------|-3----3------2-----|-0---------2------|

 G           Dsus4 D   G            Dsus4 D     G           D/F#     G      
                P                      P                                         
|----3------3--3^2--3--|----3------3--3^2--3--|----3-----3---2------|----3------------3--|
|----3------3--3--3-3--|----3------3--3--3-3--|----3-----3---3----3-|----3-----3-3----3--|
|--------------2--2----|--------------2--2----|--------------2--2---|----------0-0----0--|
|--------0------0------|--------0-----0-------|--------0------------|--------0-----------|
|----------------------|----------------------|---------------------|--------------------|
|-3----3---------------|-3----3---------------|-3----3--------------|-3----3-------3-----|

  Dsus2      C6      Dsus2        D/C    Dsus2             Dsus2        D

|----0-------------|------0-------2--2--|------0-------3--|-3^2--2-------2----|
|-3----3-----3--3--|--H3----3-----3--3--|--H3----3-----3--|-3----3--3----3----|
|-2----------2-----|-0^2----------2--2--|-0^2----------2--|-2------------2----|
|-0----------------|---0----------------|---0-------------|-0---------0-------|
|------------3-----|--------------3-----|--------------3--|-------------------|
|------------------|--------------------|-----------------|-------------------|

  G               D/F#     Em               Em7     Cadd9          D        G

|----3-3---3-3-3---------|----0-0---0-0-0---------|----3-3---3-3-3----2-2-|----3----3-3---------|
|----3-3---3-3-3-----3-3-|----0-0---0-0-0------3--|----3-3---3-3-3----3-3-|----3----3-3---------|
|--------------------2-2-|----0-0---0-0-0------0--|-----------------------|----0----0-0-------0-|
|------------------------|------------------------|----------------0------|--------------H--0---|
|------------------------|------------------------|-3------3--------------|-------------0^2-----|
|-3------3--------2------|-0------0--------2------|-----------------------|-3----3--------------|

 Em        D/F#    G                    Em        D/F#   G

|----------------|---------------------|----------------|--------------3-----|
|----------------|---------------------|-----------3----|-0-----0---------3--|
|----0------2----|-0-----0-----------0-|----0--------2--|----0-----0---------|
|-------0-----0--|----0-----0---H--0---|-------0--------|--------------------|
|----------------|-------------0^2-----|----------------|--------------2-----|
|-0---------2----|-3-------------------|-0---------2----|-3------------------|

                                                                                   ________
                                                                                  |1.

 G                  Cadd9       F        G                      C          F        G  
  
|------------3-----|-0-----------------|--------P-P-----------|-------------------|--------|
|-0-----0-------3--|----3--------------|----0--5^4^2-0--H--0--|-------------------|--------|
|----0-----0-------|-------0-----------|---------------0^2----|-------0--0--------|-0------|
|------------2-----|----------0------0-|----------------------|----0------------0-|-0------|
|------------------|-3-------------0---|----------------------|-3-------------0---|--------|
|-3----------------|------------1------|-3--------------------|------------1------|-3------|

Go Back to * 1st time thru

 __________________
|2.

                              7X
|--------------------|--------------------|
|--------------------|-------------------*|
|--------------------|--------------------|
|--sl----------------|--sl----------------|
|-3/5--5--5--5-3--3--|-3/5--5--5--5-3--3-*|
|-1/3--3--3--3-1--1--|-1/3--3--3--3-1--1--|

Guitar Solo

|----------------|------------------------|--------------------------------|
|----------------|-------sl------sl-------|---sl----sl----sl---------------|
|----------0-2-4-|-5-4--4/5\4--4/5\4------|-4/5\4--4/5\4-5/7---------0-2-4-|
|----0-2-3-------|--------------------3-0-|--------------------0-2-3-------|
|----------------|------------------------|--------------------------------|
|----------------|------------------------|--------------------------------|

|------------------------|-------------------------|
|--------sl-----sl-------|-------------------------|
|-5-4--4/5\4--4/5\4------|--P----H-P----H-P-H--sl--|
|--------------------3-0-|-3^2--2^3^2--2^3^2^3-2/3-|
|------------------------|-------------------------|
|------------------------|-------------------------|

Verse

  G           Dsus4 D   G            Dsus4 D    G           D/F#   Em       D/F#      
                P                      P                                         3X
|----3------3--3^2--3--|----3------3--3^2--3--|----3-----3--------|------------------|
|----3------3--3--3-3--|----3------3--3--3-3--|----3-----3-----3--|--------0-----3---|
|--------------2--2----|--------------2--2----|----------------2--|--------------2---|
|---------------0------|--------------0-------|-------------------|----2-4-----------|
|------2-2-------------|------2-2-------------|------2-2----------|------------------|
|-3--------------------|-3--------------------|-3-----------2-----|-0---------2------|

 G           Dsus4 D     G            Dsus4 D     G           D/F#     G      
                P                      P                                         
|----3------3--3^2--3--|----3------3--3^2--3--|-----3-----3---------|----3-3-----3-----3-3-|
|----3------3--3--3-3--|----3------3--3--3-3--|-----3-----3------3--|----3-3-----3-----3-3-|
|--------------2--2----|--------------2--2----|------------------2--|----------------------|
|---------------0------|--------------0-------|---------------------|----------------------|
|------2-2-------------|------2-2-------------|-------2-2-----------|--------2-2-----------|
|-3--------------------|-3--------------------|-3-------------2-----|-3-------------3------|

 G           Dsus4 D   G            Dsus4 D     G           D/F#  G      
                                                                                
|----3------------------|---------------3--|-----3-----------2--|-3------------|
|----3--3-3-3-----3-----|---------------3--|-----3-----------3--|-3------------|
|-------0-0-0-----2^0---|--------0---------|-----------------2--|-0------------|
|------------------P----|-----4------------|--------------------|-0------------|
|-----------------------|------------2-----|-3------------------|-2------------|
|-3------------2--------|-0----------------|--------0-0-0-2-----|-3------------|

======================
 Karmalaa 

Tune Down 1/2 Step 
  

Intro

 |---------------|---------------|---------------|---------------|
 |---------------|---------------|---------------|---------------|
 |---------------|---------------|---------------|---------------|
 |---h-----h-----|--h----sl-sl---|---h-----h-----|--h----sl-sl---|
 |--6^7-6-6^7-6--|-6^7-6-6/7\6---|--6^7-6-6^7-6--|-6^7-6-6/7\6---|
 |--6^7-6-6^7-6--|-6^7-6-6/7\6---|--6^7-6-6^7-6--|-6^7-6-6/7\6---|



 |---------------|---------------|---------------|---------------|
 |---------------|---------------|---------------|---------------|
 |---------------|---------------|---------------|---------------|
 |---h-----h-----|--h----sl-sl---|---h-----h-----|--h----sl-sl---|
 |--6^7-6-6^7-6--|-6^7-6-6/7\6---|--6^7-6-6^7-6--|-6^7-6-6/7\6---|
 |--6^7-6-6^7-6--|-6^7-6-6/7\6---|--6^7-6-6^7-6--|-6^7-6-6/7\6---|



 |---------------|--------------|---------------|
 |---------------|--------------|---------------|
 |---------------|--------------|---------------|
 |---h-----h-----|--h-----h-----|---h-----h-----|
 |--6^7-6-6^7-6--|-6^7-6-6^7-6--|--6^7-6-6^7-6--|
 |--6^7-6-6^7-6--|-6^7-6-6^7-6--|--6^7-6-6^7-6--|




Verse 1

 Mother says you
 make me weak
|------------------|---------------|--------------|---------------|
|------------------|---------------|--------------|---------------|
|------------------|---------------|--------------|---------------|
|------------------|---h-----h-----|--h-----h-----|---h-----h-----|
|------------------|--6^7-6-6^7-6--|-6^7-6-6^7-6--|--6^7-6-6^7-6--|
|------------------|--6^7-6-6^7-6--|-6^7-6-6^7-6--|--6^7-6-6^7-6--|



 Father says your 
 a freak
|------------------|---------------|--------------|---------------|
|------------------|---------------|--------------|---------------|
|------------------|---------------|--------------|---------------|
|------------------|---h-----h-----|--h-----h-----|---h-----h-----|
|------------------|--6^7-6-6^7-6--|-6^7-6-6^7-6--|--6^7-6-6^7-6--|
|------------------|--6^7-6-6^7-6--|-6^7-6-6^7-6--|--6^7-6-6^7-6--|


 To me your like
 no one else
|------------------|---------------|--------------|---------------|
|------------------|---------------|--------------|---------------|
|------------------|---------------|--------------|---------------|
|------------------|---h-----h-----|--h-----h-----|---h-----h-----|
|------------------|--6^7-6-6^7-6--|-6^7-6-6^7-6--|--6^7-6-6^7-6--|
|------------------|--6^7-6-6^7-6--|-6^7-6-6^7-6--|--6^7-6-6^7-6--|


 I think I like you



Pre-Chorus

            Captured            alive              found      as
 |---------------|-----------------|---------------|-----------------|
 |---------------|-----------------|---------------|-----------------|
 |---------------|-4-4--4--4-4--4--|---------------|-----------------|
 |-5-5--5--5--5--|-5-5--5--5-5--5--|---------------|-----------------|
 |-3-3--3--3--3--|-2-2--2--2-2--2--|-7-7--7--7--7--|-5-5--5--5-5--5--|
 |---------------|-----------------|-7-7--7--7--7--|-5-5--5--5-5--5--|




    g   u   i   l   t   y      a s    c  h  a  r  g  e  d       Evil
 |---------------|-----------------|----------|---------|------------|
 |---------------|-----------------|----------|---------|------------|
 |---------------|-----------------|----------|---------|------------|
 |---------------|-----------------|----------|---------|------------|
 |-3-3--3--3--3--|-7-7--7--7-7--7--|--7---5---|--7---9--|--10---12---|
 |-3-3--3--3--3--|-7-7--7--7-7--7--|--7---5---|--7---9--|--10---12---|




   eye             from    the       p a s t          chaos  
 |---------------|-----------------|---------------|-----------------|
 |---------------|-----------------|---------------|-----------------|
 |---------------|-----------------|---------------|-----------------|
 |-5-5--5--5--5--|-----------------|---------------|-----------------|
 |-3-3--3--3--3--|-2-2--2--2-2--2--|-7-7--7--7--7--|-5-5--5--5-5--5--|
 |---------------|-2-2--2--2-2--2--|-7-7--7--7--7--|-5-5--5--5-5--5--|




   carved         home at last  
 |---------------|-----------------|
 |---------------|-----------------|
 |---------------|-----------------|
 |---------------|-----------------|
 |-3-3--3--3--3--|-7-7--7--7-7--7--|
 |-3-3--3--3--3--|-7-7--7--7-7--7--|




Chorus

  Karmalaa           Karmalaa           Karmalaa             Punish me  
  your'e such trip   you make me sick   you were sent to me  as I deserve
 |------------------|------------------|-------------------|------------------|
 |------------------|------------------|-------------------|------------------|
 |---------------2--|---------------2--|---------------2---|---------------2--|
 |---------------2--|---------------2--|---------------2---|---------------2--|
 |-2-4-5--5-5-2--0--|-2-4-5--5-5-2--0--|-2-4-5--5-5-2--0---|-2-4-5--5-5-2--0--|
 |-2-4-5--5-5-2-----|-2-4-5--5-5-2-----|-2-4-5--5-5-2------|-2-4-5--5-5-2-----|



Intro Recap
 
 |---------------|---------------|---------------|---------------|
 |---------------|---------------|---------------|---------------|
 |---------------|---------------|---------------|---------------|
 |---h-----h-----|--h----sl-sl---|---h-----h-----|--h----sl-sl---|
 |--6^7-6-6^7-6--|-6^7-6-6/7\6---|--6^7-6-6^7-6--|-6^7-6-6/7\6---|
 |--6^7-6-6^7-6--|-6^7-6-6/7\6---|--6^7-6-6^7-6--|-6^7-6-6/7\6---|



 |---------------|--------------|---------------|
 |---------------|--------------|---------------|
 |---------------|--------------|---------------|
 |---h-----h-----|--h-----h-----|---h-----h-----|
 |--6^7-6-6^7-6--|-6^7-6-6^7-6--|--6^7-6-6^7-6--|
 |--6^7-6-6^7-6--|-6^7-6-6^7-6--|--6^7-6-6^7-6--|



Verse 2

 Your such a 
 brilliant acrobat
|------------------|---------------|--------------|---------------|
|------------------|---------------|--------------|---------------|
|------------------|---------------|--------------|---------------|
|------------------|---h-----h-----|--h-----h-----|---h-----h-----|
|------------------|--6^7-6-6^7-6--|-6^7-6-6^7-6--|--6^7-6-6^7-6--|
|------------------|--6^7-6-6^7-6--|-6^7-6-6^7-6--|--6^7-6-6^7-6--|



 And when we finish
 having sex
|------------------|---------------|--------------|---------------|
|------------------|---------------|--------------|---------------|
|------------------|---------------|--------------|---------------|
|------------------|---h-----h-----|--h-----h-----|---h-----h-----|
|------------------|--6^7-6-6^7-6--|-6^7-6-6^7-6--|--6^7-6-6^7-6--|
|------------------|--6^7-6-6^7-6--|-6^7-6-6^7-6--|--6^7-6-6^7-6--|



 You burn me with
 your cigarette
|------------------|---------------|--------------|---------------|
|------------------|---------------|--------------|---------------|
|------------------|---------------|--------------|---------------|
|------------------|---h-----h-----|--h-----h-----|---h-----h-----|
|------------------|--6^7-6-6^7-6--|-6^7-6-6^7-6--|--6^7-6-6^7-6--|
|------------------|--6^7-6-6^7-6--|-6^7-6-6^7-6--|--6^7-6-6^7-6--|


 I think I like you



Pre-Chorus

            Captured            alive              found      as
 |---------------|-----------------|---------------|-----------------|
 |---------------|-----------------|---------------|-----------------|
 |---------------|-4-4--4--4-4--4--|---------------|-----------------|
 |-5-5--5--5--5--|-5-5--5--5-5--5--|---------------|-----------------|
 |-3-3--3--3--3--|-2-2--2--2-2--2--|-7-7--7--7--7--|-5-5--5--5-5--5--|
 |---------------|-----------------|-7-7--7--7--7--|-5-5--5--5-5--5--|




    g   u   i   l   t   y      a s    c  h  a  r  g  e  d       Evil
 |---------------|-----------------|----------|---------|------------|
 |---------------|-----------------|----------|---------|------------|
 |---------------|-----------------|----------|---------|------------|
 |---------------|-----------------|----------|---------|------------|
 |-3-3--3--3--3--|-7-7--7--7-7--7--|--7---5---|--7---9--|--10---12---|
 |-3-3--3--3--3--|-7-7--7--7-7--7--|--7---5---|--7---9--|--10---12---|




   eye             from    the       p a s t          chaos   
 |---------------|-----------------|---------------|-----------------|
 |---------------|-----------------|---------------|-----------------|
 |---------------|-----------------|---------------|-----------------|
 |-5-5--5--5--5--|-----------------|---------------|-----------------|
 |-3-3--3--3--3--|-2-2--2--2-2--2--|-7-7--7--7--7--|-5-5--5--5-5--5--|
 |---------------|-2-2--2--2-2--2--|-7-7--7--7--7--|-5-5--5--5-5--5--|




   carved         home at last  
 |---------------|-----------------|
 |---------------|-----------------|
 |---------------|-----------------|
 |---------------|-----------------|
 |-3-3--3--3--3--|-7-7--7--7-7--7--|
 |-3-3--3--3--3--|-7-7--7--7-7--7--|



Chorus

  Karmalaa           Karmalaa           Karmalaa             Punish me  
  your'e such trip   you make me sick   you were sent to me  as I deserve
 |------------------|------------------|-------------------|------------------|
 |------------------|------------------|-------------------|------------------|
 |---------------2--|---------------2--|---------------2---|---------------2--|
 |---------------2--|---------------2--|---------------2---|---------------2--|
 |-2-4-5--5-5-2--0--|-2-4-5--5-5-2--0--|-2-4-5--5-5-2--0---|-2-4-5--5-5-2--0--|
 |-2-4-5--5-5-2-----|-2-4-5--5-5-2-----|-2-4-5--5-5-2------|-2-4-5--5-5-2-----|




 |------------------|------------------|-------------------|------------------|
 |------------------|------------------|-------------------|------------------|
 |---------------2--|---------------2--|---------------2---|---------------2--|
 |---------------2--|---------------2--|---------------2---|---------------2--|
 |-2-4-5--5-5-2--0--|-2-4-5--5-5-2--0--|-2-4-5--5-5-2--0---|-2-4-5--5-5-2--0--|
 |-2-4-5--5-5-2-----|-2-4-5--5-5-2-----|-2-4-5--5-5-2------|-2-4-5--5-5-2-----|




 |--------------|--------------|--------------|--------------|--------------|
 |-5------3-----|--------------|--------------|--------------|-2------------|
 |---6------4---|-2------------|--------------|--------------|---3----------|
 |-----7------5-|---4----4-5-7-|-8-5----------|--------------|-----4--6-3---|
 |--------------|-----5--------|-----6--8-5---|-3-0----0-1-3-|------------4-|
 |--------------|--------------|------------8-|-----3--------|--------------|




 |--------------|--------------|--------------|
 |--------------|--------------|-------?????--|
 |--------------|--------------|-------?????--|
 |--h------h----|--h------h----|--h-----------|
 |-4^5-5--4^5-5-|-4^5-5--4^5-5-|-4^5-5--------|
 |-4^5-5--4^5-5-|-4^5-5--4^5-5-|-4^5-5--------|


Guitar Solo

 |--h-p------------|--h-p------------|--h-p------------|-------------|
 |-5^6^5---5-------|-5^6^5---5-------|-5^8^5---5--p-p--|--p-p--------|
 |-------8---8-7-8-|-------8---8-7-8-|-------8---8^7^5-|-8^7^5-7-7-5-|
 |-----------------|-----------------|-----------------|-------------|
 |-----------------|-----------------|-----------------|-------------|
 |-----------------|-----------------|-----------------|-------------| 



 |------------------|-------------------|-------------------|---------------|
 |--p--------p------|--p---------p------|--p---------p------|---p-----------|
 |-5^0-0-0--9^0-0-0-|-7^0-0-0--10^0-0-0-|-9^0-0-0--10^0-0-0-|-14^0-0-0--12--|
 |------------------|-------------------|-------------------|---------------|
 |------------------|-------------------|-------------------|---------------|
 |------------------|-------------------|-------------------|---------------|

This is all we have of the solo



 Evil eye   from the   past   chaos   carved
 
   C        E7        Am
 |-0------|----------|-0-----|-------|-------|--------|
 |-1------|-3--------|-1-----|-5-----|-4-----|-3------|
 |-0------|-1--------|-2-----|-5-----|-2-----|-3------|
 |-2------|-2--------|-2-----|-------|-3-----|-3------|
 |-3------|----------|-0-----|-------|-------|--------|
 |--------|----------|-------|-5-----|-------|--------|





 |-------------|-------------|-------------|-------------|
 |-------------|-------------|-------------|-------------|
 |-------------|-------------|-------------|-------------|
 |--h---h------|--h---h------|--h---h------|--h---h------|
 |-0^2-0^2--5--|-0^2-0^2--5--|-0^2-0^2--5--|-0^2-0^2--5--|
 |-0^2-0^2--5--|-0^2-0^2--5--|-0^2-0^2--5--|-0^2-0^2--5--|

  

                Authorization  
   Enter Voice     Sample      I'm Sorry    Access Denied  
 |-------------|-------------|-------------|-------------------------|
 |-------------|-------------|-------------|-------------------------|
 |-------------|-------------|-------------|-------------p-----------|
 |--h---h------|--h---h------|--h---h------|--h---h----12^9----------|
 |-0^2-0^2--5--|-0^2-0^2--5--|-0^2-0^2--5--|-0^2-0^2--------12-11-10-|
 |-0^2-0^2--5--|-0^2-0^2--5--|-0^2-0^2--5--|-0^2-0^2-----------------|





 |---------------|--------------|---------------|
 |---------------|--------------|---------------|
 |---------------|--------------|---------------|
 |---h-----h-----|--h-----h-----|---h-----h-----|
 |--6^7-6-6^7-6--|-6^7-6-6^7-6--|--6^7-6-6^7-6--|
 |--6^7-6-6^7-6--|-6^7-6-6^7-6--|--6^7-6-6^7-6--|




Verse 3


 With you it's fun
 just staying in
|------------------|---------------|--------------|---------------|
|------------------|---------------|--------------|---------------|
|------------------|---------------|--------------|---------------|
|------------------|---h-----h-----|--h-----h-----|---h-----h-----|
|------------------|--6^7-6-6^7-6--|-6^7-6-6^7-6--|--6^7-6-6^7-6--|
|------------------|--6^7-6-6^7-6--|-6^7-6-6^7-6--|--6^7-6-6^7-6--|


 Chat over a  
 cup of tea
|------------------|---------------|--------------|---------------|
|------------------|---------------|--------------|---------------|
|------------------|---------------|--------------|---------------|
|------------------|---h-----h-----|--h-----h-----|---h-----h-----|
|------------------|--6^7-6-6^7-6--|-6^7-6-6^7-6--|--6^7-6-6^7-6--|
|------------------|--6^7-6-6^7-6--|-6^7-6-6^7-6--|--6^7-6-6^7-6--|


 Just like gum
 surgery
|------------------|---------------|--------------|---------------|
|------------------|---------------|--------------|---------------|
|------------------|---------------|--------------|---------------|
|------------------|---h-----h-----|--h-----h-----|---h-----h-----|
|------------------|--6^7-6-6^7-6--|-6^7-6-6^7-6--|--6^7-6-6^7-6--|
|------------------|--6^7-6-6^7-6--|-6^7-6-6^7-6--|--6^7-6-6^7-6--|




I think I like you
|------------------|---------------|
|------------------|---------------|
|------------------|---------------|
|------------------|---h-----h-----|
|------------------|--6^7-6-6^7-6--|
|------------------|--6^7-6-6^7-6--|

  

 I really hate you
|------------------|---------------|
|------------------|---------------|
|------------------|---------------|
|------------------|---h-----h-----|
|------------------|--6^7-6-6^7-6--|
|------------------|--6^7-6-6^7-6--|

  

Don't even know you 
|------------------|---------------|
|------------------|---------------|
|------------------|---------------|
|------------------|---h-----h-----|
|------------------|--6^7-6-6^7-6--|
|------------------|--6^7-6-6^7-6--|

  

|---------------------|---------------------|
|---------------------|---------------------|
|---------------------|---------------------|
|---------------------|---------------------|
|-12-12-10--12/14-10--|-12-12-10--12/14-10--|
|-12-12-10--12/14-10--|-12-12-10--12/14-10--|



|---------------------|---------------------|
|---------------------|---------------------|
|---------------------|---------------------|
|---------------------|---------------------|
|-12-12-10--12/14-10--|-12-12-10--12/14-10--|
|-12-12-10--12/14-10--|-12-12-10--12/14-10--|

==========================
Confrontation 

Tune Down 1/2 Step 

  Jesus Christ was   He gave his life
  a very kind man    for all our sins Did he have to?  I guess he had to  

   Em      Am         G       D         C               Em
 |--0-------0------|--3-------2------|--0-------------|--0--------------|
 |--0-------1------|--3-------3------|--1-------------|--0--------------|
 |--0-------2------|--0-------2------|--0-------------|--0--------------|
 |--2-------2------|--0-------0------|--2-------------|--2--------------| 
 |--2-------0------|--2--------------|--3-------------|--2--------------|
 |--0--------------|--3--------------|----------3--2--|--0----------3~--|


  Abe Lincoln was   He took a chance, 
  a very brave man  freed the slaves  Did he have to? I guess he had to

   Em      Am         G       D         C               Em
 |--0-------0------|--3-------2------|--0-------------|--0--------------|
 |--0-------1------|--3-------3------|--1-------------|--0--------------|
 |--0-------2------|--0-------2------|--0-------------|--0--------------|
 |--2-------2------|--0-------0------|--2-------------|--2--------------| 
 |--2-------0------|--2--------------|--3-------------|--2--------------|
 |--0--------------|--3--------------|----------3--2--|--0--------------|




Do you believe in me?      Do you believe in me?

    Am    G       C   G/B      Am   G       C   G/B
 |--------3----|--0----3----|-------3----|--0----3----|
 |---1----3----|--1----3----|--1----3----|--1----3----|
 |---2----0----|--0----0----|--2----0----|--0----0----|
 |---2----0----|--2----0----|--2----0----|--2----0----|
 |---0----2----|--3----2----|--0----2----|--3----2----|
 |--------3----|------------|-------3----|------------|




(Cause)if you don't 
   I'm gonna leave     you
    Em       Dm9      C maj 7        4x
 |------------------|------------------|
 |---0--------0-----|---0-------------*|
 |---0--------0-----|---0--------------|
 |---9--------7-----|---5--------------|
 |---7--------5-----|---3-------------*|
 |------------------|------------------|



  Superman was a    He risked his  
  very strong man   for Kryptonite    Did he have to?  I guess he had to 
 
   Em      Am         G       D         C               Em
 |--0-------0------|--3-------2------|--0-------------|--0--------------|
 |--0-------1------|--3-------3------|--1-------------|--0--------------|
 |--0-------2------|--0-------2------|--0-------------|--0--------------|
 |--2-------2------|--0-------0------|--2-------------|--2--------------| 
 |--2-------0------|--2--------------|--3-------------|--2--------------|
 |--0--------------|--3--------------|----------3--2--|--0----------3~--|



  Robin Hood was   Stole from the rich  
  a generous man   fed the poor         Did he have to? I guess he had to

   Em      Am         G       D           C               Em
 |--0-------0------|--3-------2--------|--0-------------|--0--------------|
 |--0-------1------|--3-------3--------|--1-------------|--0--------------|
 |--0-------2------|--0-------2--------|--0-------------|--0--------------|
 |--2-------2------|--0-------0--------|--2-------------|--2--------------| 
 |--2-------0------|--2----------------|--3-------------|--2--------------|
 |--0--------------|--3----------------|----------3--2--|--0--------------|




Do you believe in me?      Do you believe in me?

    Am    G    Cadd 9 G/B     Am    G    Cadd 9 G/B
 |--------3----|--3----3----|-------3----|--0----3----|
 |---1----3----|--3----3----|--1----3----|--1----3----|
 |---2----0----|--0----0----|--2----0----|--0----0----|
 |---2----0----|--2----0----|--2----0----|--2----0----|
 |---0----2----|--3----2----|--0----2----|--3----2----|
 |--------3----|------------|-------3----|------------|




(Cause)if you don't 
   I'm gonna leave     you

    Em       Dm9      C maj 7        4x
 |------------------|------------------|
 |---0--------0-----|---0-------------*|
 |---0--------0-----|---0--------------|
 |---9--------7-----|---5--------------|
 |---7--------5-----|---3-------------*|
 |------------------|------------------|




Solo

 |---------|----sl--------|----sl--------|----sl-------sl------|
 |--5---5--|-5--5/7--7--7-|-7--7/8--8--8-|-8--8/10-10-10/12-12-|
 |---------|--------------|--------------|---------------------|
 |--2---2--|-2--2/4--4--4-|-4--4/5--5--5-|-5--5/7--7---7/9--9--|
 |---------|--------------|--------------|---------------------|
 |---------|--------------|--------------|---------------------|

 |----------------|-------------------|--sl---------sl------|
 |-12--13--15--13-|-12----12-12-12-12-|-12/13-12---12/13-12-|
 |----------------|-------------------|---------------------|
 |--9--10--12--10-|--9-----9--9--9--9-|--9/10--9----9/10--9-|
 |----------------|-------------------|---------------------|
 |----------------|-------------------|---------------------|



 |----------------|-sl----------------|--sl-------sl-------|
 |-12--13--15--13-|-12\-------8-8-8-8-|-8/10-8----8/10-8---|
 |----------------|-------------------|--------------------|
 |--9--10--12--10-|--9\-------5-5-5-5-|-5/-7-5----5/-7-5---|
 |----------------|-------------------|--------------------|
 |----------------|-------------------|--------------------|

 

 |----------------|-------------------|--sl--------sl-------|
 |-12--13--15--13-|-12----12-12-12-12-|-12/13-12---12/13-12-|
 |----------------|-------------------|---------------------|
 |--9--10--12--10-|--9-----9--9--9--9-|--9/10--9----9/10--9-|
 |----------------|-------------------|---------------------|
 |----------------|-------------------|---------------------|



 |----------------|-------------------|--sl--------sl------|
 |-12--13--15--13-|-12-12-----8-8-8-8-|-8/10-8----8/10-8---|
 |----------------|-------------------|--------------------|
 |--9--10--12--10-|--9--9-----5-5-5-5-|-5/-7-5----5/-7-5---|
 |----------------|-------------------|--------------------|
 |----------------|-------------------|--------------------|





Last Verse (Played over A section)

    Jesus Christ was            He geve his life 
    a very kind man             for all our sins

 |----------------------------|-------------------------------|
 |-12-13-13-12-12/13-13-13-12-|-12-13-13-12\8--12/15-15-15-12-|
 |----------------------------|-------------------------------|
 |--9-10-10--9--9/10-10-10--9-|-9--10-10--9\5---9/12-12-12--9-|
 |----------------------------|-------------------------------|
 |----------------------------|-------------------------------|

 

   Did he have to?     I guess he had to

 |--------------------|----------------0--|
 |-12-13-13-12--13-13-|----------------0--|
 |--------------------|----------------0--|
 |--9-10-10--9--10-10-|----------------2--|
 |--------------------|----------------2--|
 |--------------------|---0--3--2------0--|


======================
I Wonder 
  
Tune Down 1/2 Step 
  

Intro

  G       G/E              G/B     G/C   G/F#    G       G/E        G    G/B      G/C    G/F#

|-3--3-3--12-12--12------|-7--7-7--8--8---2--2-|-3--3-3--12-12--12------|-7--7-7--8--8---2--2-|
|-0--0-0--0--0---0---0-0-|-0--0-0--0--0---0--0-|-0--0-0--0--0---0---0-0-|-0--0-0--0--0---0--0-|
|-0--0-0--0--0---0---0-0-|-0--0-0--0--0---0--0-|-0--0-0--0--0---0---0-0-|-0--0-0--0--0---0--0-|
|-0--0-0--0--0---0---0-0-|-0--0-0--0--0---0--0-|-0--0-0--0--0---0---0-0-|-0--0-0--0--0---0--0-|
|------------------------|---------------------|------------------------|---------------------|
|------------------------|---------------------|------------------------|---------------------|

  G       G/E        G     G/B     G/C    G/F#

|-3--3-3--12-12--12------|-7--7-7--8--8---2--2-|
|-0--0-0--0--0---0---0-0-|-0--0-0--0--0---0--0-|
|-0--0-0--0--0---0---0-0-|-0--0-0--0--0---0--0-|
|-0--0-0--0--0---0---0-0-|-0--0-0--0--0---0--0-|
|------------------------|---------------------|
|------------------------|---------------------|

Verses

   A       Bm           G        F#          A        Bm           G        F#
|---------------------|--------------------|---------------------|----------2-2-2-2--|
|---------------3-3---|------------2-----2-|---------------3-----|----------2-2-2-2--|
|--2---2--------4-4---|------4-----3-----3-|------2--------4-----|------4---3-3-3-3--|
|--2---2--------4-4---|------5-----4-----4-|------2--------4---0-|------5---4-4-4-4--|
|--0---0---2--2-----3-|------5-------------|--0---0---2--2-------|------5---4-4-4-4--|
|---------------------|--3-------2----2----|---------------------|--3-------2-2-2-2--|

Pre-Chorus

   Bm          A             D          G           F#     G     F#
|--------------------------|------2--2-----------|------------|------------|
|--3--3--3--3-------2--2-2-|------3--3---------3-|--0------0--|--0---------|
|--4--4--4--4-------2--2-2-|------2--2---------4-|--3------4--|--3---------|
|--4--4--4--4-------2--2-2-|-0--0--------H-----5-|--4------5--|--4---------|
|--2--2--2--2--0--0--------|------------3^5------|--4------5--|--4---------|
|--------------------------|----------------3----|--2------3--|--2---------|

Chorus

  Bm                    G         A            Bm                    G         A
|--------------------|--3----3---------------|--------------------|--3----3---------------| 
|--3----3----3----3--|--0----0----2--2----2--|--3----3----3----3--|--0----0----2--2----2--| 
|--4----4----4----4--|--0----0----2--2----2--|--4----4----4----4--|--0----0----2--2----2--| 
|--4----4----4----4--|--0----0----2--2----2--|--4----4----4----4--|--0----0----2--2----2--| 
|--2----2----2----2--|--2----2----0--0----0--|--2----2----2----2--|--2----2----0--0----0--|
|--------------------|--3----3---------------|--------------------|--3----3---------------|

  Bm                   G         A            Bm                A   G           A
|--------------------|--3----3---------------|--------------------|-3---3--3-3------------| 
|--3----3----3----3--|--0----0----2--2----2--|--3----3----3---3---|-0---0--0-0--2--2---2--| 
|--4----4----4----4--|--0----0----2--2----2--|--4----4----4---4-2-|-0---0--0-0--2--2---2--| 
|--4----4----4----4--|--0----0----2--2----2--|--4----4----4---4-2-|-0---0--0-0--2--2---2--| 
|--2----2----2----2--|--2----2----0--0----0--|--2----2----2---2-0-|-2---2--2-2--0--0---0--|
|--------------------|--3----3---------------|--------------------|-3---3--3-3------------|

Solo

|-----------------|-------------------------|--------------------------------|
|---)-------------|--)---P----)--)-)---P-H--|--------H-)10--)--)--)---P-sl---|
|--9~~~~----------|-9-(9)^7--9--9-9-(9)^7^9-|-7~~~(7)^9----9--9--9-(9)^7\6---|
|-----------------|-------------------------|--------------------------------|
|-----------------|-------------------------|--------------------------------|
|-----------------|-------------------------|--------------------------------|

|------)----------------H--P--------|---P---------P---------P---------P-------| 
|----10---------------11^12^11---11-|-12^11-12--14^12-14--15^14-15--17^15-17--| 
|-7----------------11----------13---|-----------------------------------------| 
|-------------8-11------------------|-----------------------------------------| 
|-----------9-----------------------|-----------------------------------------| 
|-----------------------------------|-----------------------------------------|

                                              Trill
|---)15-17---)--P------)--)17-----P---|--------------sl--H---------)----P------| 
|-17-------17-17^15--17-17----(17)^15-|-17~~15^17-(15)\14^15-14--17-(17)^15-14-| 
|-------------------------------------|----------------------------------------| 
|-------------------------------------|----------------------------------------| 
|-------------------------------------|----------------------------------------| 
|-------------------------------------|----------------------------------------|

        )   
|-----17-~~~~~~~~~~~-----| 
|-15---------------------| 
|------------------------|
|------------------------|
|------------------------|
|------------------------|

Rhythm behind solo

  Bm      BmMaj7   Bm7      Bm6      G        A7             D       F#7
|-----------------|----------------|-3--3--3----3---3--3-3-|-2--2-2--2-2--2--2-2-|
|-7--7-7--7-7-7-7-|-7--7-7--7--7-7-|-3--3--3----2---2--2-2-|-3--3-3--2-2--2--2-2-|
|-7--7-7--7-7-7-7-|-7--7-7--7--7-7-|-0--0--0----2---2--2-2-|-2--2-2--3-3--3--3-3-|
|-9--9-9--8-8-8-8-|-7--7-7--6--6-6-|-0--0--0----2---2--2-2-|-0--0-0--2-2--2--2-2-|
|-----------------|----------------|-2--2--2--0---0--------|---------4-4--4--4-4-|
|-----------------|----------------|-3--3--3---------------|---------2-2--2--2-2-|

  Bm      BmMaj7   Bm7      Bm6      G        A7             D       
|-----------------|----------------|-3--3--3----3---3--3-3-|-2--2-2---2--2--2--2-|
|-7--7-7--7-7-7-7-|-7--7-7--7--7-7-|-3--3--3----2---2--2-2-|-3--3-3---3--3--3--3-|
|-7--7-7--7-7-7-7-|-7--7-7--7--7-7-|-0--0--0----2---2--2-2-|-2--2-2---2--2--2--2-|
|-9--9-9--8-8-8-8-|-7--7-7--6--6-6-|-0--0--0----2---2--2-2-|-0--0-0--------------|
|-----------------|----------------|-2--2--2--0---0--------|---------------------|
|-----------------|----------------|-3--3--3---------------|---------------------|

 

Outro

 Bm      BmMaj7     Bm7      Bm6     G         A7            D       F#7
|-----------------|----------------|-3--3--3----3---3--3-3-|-2--2-2--2-2--2--2-2-|
|-7--7-7--7-7-7-7-|-7--7-7--7--7-7-|-3--3--3----2---2--2-2-|-3--3-3--2-2--2--2-2-|
|-7--7-7--7-7-7-7-|-7--7-7--7--7-7-|-0--0--0----2---2--2-2-|-2--2-2--3-3--3--3-3-|
|-9--9-9--8-8-8-8-|-7--7-7--6--6-6-|-0--0--0----2---2--2-2-|-0--0-0--2-2--2--2-2-|
|-----------------|----------------|-2--2--2--0---0--------|---------4-4--4--4-4-|
|-----------------|----------------|-3--3--3---------------|---------2-2--2--2-2-|

 

 Bm      BmMaj7     Bm7      Bm6     G         A7            D       F#7
|-----------------|----------------|-3--3--3----3---3--3-3-|-2--2-2--2-2--2--2-2-|
|-7--7-7--7-7-7-7-|-7--7-7--7--7-7-|-3--3--3----2---2--2-2-|-3--3-3--2-2--2--2-2-|
|-7--7-7--7-7-7-7-|-7--7-7--7--7-7-|-0--0--0----2---2--2-2-|-2--2-2--3-3--3--3-3-|
|-9--9-9--8-8-8-8-|-7--7-7--6--6-6-|-0--0--0----2---2--2-2-|-0--0-0--2-2--2--2-2-|
|-----------------|----------------|-2--2--2--0---0--------|---------4-4--4--4-4-|
|-----------------|----------------|-3--3--3---------------|---------2-2--2--2-2-|

  
=======================
Got to Have You 

Tune Down 1/2 Step 

Intro

*2 Guitar Version

  Guitar 1                                                             4X
|------------------|-----------------|-----------------|-----------------|
|*-----------------|-----------------|-----------------|----------------*|
|------------------|-----------------|-----------------|-----------------|
|--6-6-6-6-6-6-6-6-|-6-6-6-6-6-6-6-6-|-6-6-6-6-6-6-6-6-|-6-6-6-6-6-6-6-6-|
|*-4-4-4-4-4-4-4-4-|-4-4-4-4-4-4-4-4-|-4-4-4-4-4-4-4-4-|-4-4-4-4-4-4-4-4*|
|------------------|-----------------|-----------------|-----------------|
|                                                                        |
|                                                                        |
|Guitar 2                                                                |
|------------------|-----------------|-----------------|-----------------|
|*-----------------|-----------------|-----------------|----------------*|
|------------------|-----------------|-----------------|-----------------|
|------------------|---------6-6-6-6-|-----------------|---------6-6-6-6-|
|*-4-4-4---4-4---4-|-4-4-4-4-2-4-4-4-|-4-4-4---4-4---4-|-4-4-4-4-2-4-4-4*|
|--0-2-2-0-4-4-0-5-|-5-5-5-5---------|-0-2-2-0-4-4-0-5-|-5-5-5-5---------|


*1 Guitar Version* 

|------------------|-----------------|-----------------|-----------------||
|------------------|-----------------|-----------------|-----------------||
|------------------|-----------------|-----------------|-----------------||
|--6-6-6-6-6-6-6-6-|-6-6-6-6-6-6-6-6-|-6-6-6-6-6-6-6-6-|-6-6-6-6-6-6-6-6-||
|--4-4-4-4-4-4-4-4-|-4-4-4-4-4-4-4-4-|-4-4-4-4-4-4-4-4-|-4-4-4-4-2-4-4-4-||
|--0-2-2-0-4-4-0-5-|-5-5-5-5---------|-0-2-2-0-4-4-0-5-|-5-5-5-5---------||


Verse

 C#                  C#/A              C#               C#/A    C#sus4/A             
|------------------|-----------------|-----------------|-----------------|
|*-6-6-6-6-6-6-6-6-|-6-6-6-6-6-6-6-6-|-6-6-6-6-6-6-6-6-|-6-6-6-6-7-7-7-7*|
|--6-6-6-6-6-6-6-6-|-6-6-6-6-6-6-6-6-|-6-6-6-6-6-6-6-6-|-6-6-6-6-6-6-6-6-|
|--6-6-6-6-6-6-6-6-|-6-6-6-6-6-6-6-6-|-6-6-6-6-6-6-6-6-|-6-6-6-6-6-6-6-6-|
|*-4-4-4-4-4-4-4-4-|-0-0-0-0-0-0-0-0-|-4-4-4-4-4-4-4-4-|-0-0-0-0-0-0-0-0*|
|------------------|-----------------|-----------------|-----------------|

 C#                  C#/A              C#               C#/A              
|------------------|-----------------|-----------------|-----------------|
|*-6-6-6-6-6-6-6-6-|-6-6-6-6-6-6-6-6-|-6-6-6-6-6-6-6-6-|-6-6-6-6-6-6-6-6*|
|--6-6-6-6-6-6-6-6-|-6-6-6-6-6-6-6-6-|-6-6-6-6-6-6-6-6-|-6-6-6-6-6-6-6-6-|
|--6-6-6-6-6-6-6-6-|-6-6-6-6-6-6-6-6-|-6-6-6-6-6-6-6-6-|-6-6-6-6-6-6-6-6-|
|*-4-4-4-4-4-4-4-4-|-0-0-0-0-0-0-0-0-|-4-4-4-4-4-4-4-4-|-0-0-0-0-0-0-0-0*|
|------------------|-----------------|-----------------|-----------------|
 


Pre-Chorus

  F#     B       F#       A#m        B      E7
|-2------------|-2-------|-1-------|---------------|
|-2------4--4--|-2-------|-2-------|--------3------|
|-3------4--4--|-3-------|-3-------|-4------1------|
|-4------4--4--|-4-------|-3-------|-4------2------|
|-4------------|-4-------|-1-------|-2------2------|
|-2------------|-2-------|---------|--------0------|

  F#     B       F#       A#m        B       C#
|-2------------|-2-------|-1-------|----------)(-P--------|
|-2------4--4--|-2-------|-2-------|---------6--6^4---4---|
|-3------4--4--|-3-------|-3-------|-4---4----------6---6-|
|-4------4--4--|-4-------|-3-------|-4---4--------------6-|
|-4------------|-4-------|-1-------|-2---2--------------4-|
|-2------------|-2-------|---------|----------------------|

Chorus

  C#                B          C#                                 B
|-------|-------)(-P--------|-------------------------|-------)(-P--------|
|-------|-6----6--6^4---4-6-|-------------------------|-6----6--6^4---4-6-|
|-6-----|-6-----------6---6-|--6-6-6-6---6---6-6-6-3--|-6-----------6---6-|
|-6-----|-6--------(4)------|--6-6-6-6---6---6-6-6-4--|-6--------(4)------|
|-4-----|-4--------(2)------|--4-4-4-4-4---4----------|-4--------(2)------|
|-------|-------------------|-------------------------|-------------------|

  C#                B          C#
|-------|-------)(-P--------|-----------------------|----------------|
|-------|-6----6--6^4---4-6-|---------6-6-6--7-6-7--|-6--------------|
|-6-----|-6-----------6---6-|--6-6-6--6-6-6--6-6-6--|-6--------------|
|-6-----|-6--------(4)------|--6-6-6--6-6-6--8-6-8--|-6--------------|
|-4-----|-4--------(2)------|--4-4-4----------------|-4--------------|
|-------|-------------------|-----------------------|----------------|

Guitar Solo

|--------------------|--------------------|-------------------------------|-------------------------|
|---)---------10-----|-------sl------10--)|-(-)(-)-----------)--)--P------|-------------------------|
|-10--10~~--8----8~~~|---8-8-8/9-9-9----8-|--8--8--8-9-8-9--9--9--9^8---8-|-(8)----H-sl--------H--8-|
|--------------------|--------------------|---------------------------9---|-----9-7^9\7---7-7-7^9---|
|--------------------|--------------------|-------------------------------|-------------------------|
|--------------------|--------------------|-------------------------------|-------------------------|
  
                              P  P                    P  P
|----------H---11-12-14-14--14^12^11----------11-12-14^12^11----------|
|--H--10-10^12-----------------------12-10-12----------------12-10-12-|
|-8^9-----------------------------------------------------------------|
|---------------------------------------------------------------------|
|---------------------------------------------------------------------|
|---------------------------------------------------------------------|

          P  P                    P  P           P  P               P
|-11-12-14^12^11----------11-12-14^12^11----12-14^12^11---P----11-12^11------------)-|
|----------------12-10-12----------------14-------------14^12-----------12----12-14--|
|--------------------------------------------------------------------------11--------|
|------------------------------------------------------------------------------------|
|------------------------------------------------------------------------------------|
|------------------------------------------------------------------------------------|

          ___
|------)----)-14-(------------)-|---)(---------------------------------|
|----14---14------14--12-14-14--|-14--14-12----12-14-12\----------H-P--|
|-------------------------------|-----------13---------------4-4-4^6^4-|
|-------------------------------|--------------------------------------|
|-------------------------------|--------------------------------------|
|-------------------------------|--------------------------------------|



Basic Rhythm behind Solo

    B7                              B7         A          B7             
|-7--H-P---7H-P----7--7---7-7-7-|---7--7--7-7-------------7--|
|-4-5^4^5--4^5^4---5--5---5-5-4-|---4--4--4-4--2--2--2-2--4--|
|-4--------4-------4--4---4-4-4-|---4--4--4-4--2--2--2-2--4--|
|-4--------4-------4--4---4-4-4-|---4--4--4-4--2--2--2-2--4--|
|-------------------------------|----------------------------|
|-------------------------------|----------------------------|



Last Verse

  F#                 F#                 A#m                  B          E7
|-2----------------|-2-----------------|-1-----------------|-----------------------|
|-2----------------|-2-----------------|-3-----------------|-4----------3----------|
|-3----------------|-3-----------------|-2-----------------|-4----------1----------|
|-4----------------|-4-----------------|-2-----------------|-4----------2----------|
|-4----------------|-4-----------------|-1-----------------|-2----------2----------|
|-2----------------|-2-----------------|-------------------|------------0----------|
|                                                                                  |
|           oh so    heavenly                                                      |
|                                                                                  |
|           1/2                  1/2               1/2                      1/2    |
|------------------|-------------------|-------------------|-----------------------|
|------------)--2--|--------------)--2-|------------)---2--|-----------------)-----|
|^3------3--3------|-------4--3--3-----|--------3--4-------|--------4--3----4------|
|------------------|-------------------|-------------------|-----------------------|
|------------------|-------------------|-------------------|-----------------------|
|------------------|-------------------|-------------------|-----------------------|

  F#                 F#                 A#m                  B          E7
|-2----------------|-2-----------------|-1-----------------|-----------------------|
|-2----------------|-2-----------------|-3-----------------|-4----------3----------|
|-3----------------|-3-----------------|-2-----------------|-4----------1----------|
|-4----------------|-4-----------------|-2-----------------|-4----------2----------|
|-4----------------|-4-----------------|-1-----------------|-2----------2----------|
|-2----------------|-2-----------------|-------------------|------------0----------|
|                                                                                  |
|                                                                                  |
|                                                                                  |
|           1/2                                                                    |
|------------------|-------------/9--9-|----9----6--/9---9-|-----7--6---/9-----9---|
|--2---------)--2--|-------------------|-------------------|-----------------------|
|-----------3------|-------4--3--/6--6-|----6----3--/6---6-|-----4--3---/6-----6---|
|------------------|-------------------|-------------------|-----------------------|
|------------------|-------------------|-------------------|-----------------------|
|------------------|-------------------|-------------------|-----------------------|

  F#                 F#                 A#m                  B                 C#
|-2----------------|-2-----------------|-1-----------------|-----------------------|
|-2----------------|-2-----------------|-3-----------------|-4---------------------|
|-3----------------|-3-----------------|-2-----------------|-4-----------------6---|
|-4----------------|-4-----------------|-2-----------------|-4-----------------6---|
|-4----------------|-4-----------------|-1-----------------|-2-----------------4---|
|-2----------------|-2-----------------|-------------------|-----------------------|
|                                                                                  |
|                                                                                  |
|                                                                                  |
|                                  H                                               |
|-----9---/6--9--9-|----7--6---9--9^11-|-9--------6--9---9-|-----7-----)(----------|
|------------------|-------------------|-------------------|----------6--6----4----|
|------------------|-------------------|-------------------|--------------4-6---6--|
|-----6------------|-------------------|-------------------|--------------------6--|
|------------------|-------------------|-------------------|--------------------4--|
|------------------|-------------------|-------------------|-----------------------|

=======================
You 

Tune Down 1/2 Step 
  
  

Intro
 P.M. Throughout intro

   C sus4                        C sus4
|-----------------------------|-----------------------------|
|*------------1---1---------1-|-------------1---1---------1-|
|--0--0--0--0-0-0-0-0--0--0-0-|--0--0--0--0-0-0-0-0--0--0-0-|
|--3--3--3--3---3---3--3--3---|--3--3--3--3---3---3--3--3---|
|*-3--3--3--3---3---3--3--3---|--3--3--3--3---3---3--3--3---|
|-----------------------------|-----------------------------|

   C sus4/A                      C sus4/G                 2X
|-----------------------------|-----------------------------|
|-------------1---1---------1-|-------------1---1---------1*|
|--0--0--0--0-0-0-0-0--0--0-0-|--0--0--0--0-0-0-0-0--0--0-0-|
|--3--3--3--3---3---3--3--3---|--3--3--3--3---3---3--3--3---|
|--0--0--0--0---0---0--0--0---|----------------------------*|
|-----------------------------|--3--3--3--3---3---3--3--3---|

Verse

  Dm                       Bb Maj7/Eb                  Bb Maj7               
|------------------------|----------------------------|----------------------------|
|-6---6--6-6-6-6-6--6--6-|-6--6--6--6-6-6-6-6--6--6-6-|-6--6--6--6-6-6-6-6--6--6-6-|
|-7---7--7-7-7-7-7--7--7-|-7--7--7--7-7-7-7-7--7--7-7-|-7--7--7--7-7-7-7-7--7--7-7-|
|-7---7--7-7-7-7-7--7--7-|-7--7--7--7-7-7-7-7--7--7-7-|-6--6--6--6-6-6-6-6--6--6-6-|
|-5---5--5-5-5-5-5--5--5-|-6--6--6--6-6-6-6-6--6--6-6-|-6--6--6--6-6-6-6-6--6--6-6-|
|------------------------|----------------------------|----------------------------|

 A7                        Dm                      Bb Maj7/Eb
|-5---5--5-5-5-5-5--5--5-|------------------------|----------------------------|
|-5---5--5-5-5-5-5--5--5-|-6---6--6-6-6-6-6--6--6-|-6--6--6--6-6-6-6-6--6--6-6-|
|-6---6--6-6-6-6-6--6--6-|-7---7--7-7-7-7-7--7--7-|-7--7--7--7-7-7-7-7--7--7-7-|
|-5---5--5-5-5-5-5--5--5-|-7---7--7-7-7-7-7--7--7-|-7--7--7--7-7-7-7-7--7--7-7-|
|-7---7--7-7-7-7-7--7--7-|-5---5--5-5-5-5-5--5--5-|-6--6--6--6-6-6-6-6--6--6-6-|
|-5---5--5-5-5-5-5--5--5-|------------------------|----------------------------|
|                                                                              |
|                                                                              |
|                                                                              |
|                                                                              |
|----------------------sl|------sl--------sl------|------------------------sl--|
|---------------8--10-10/|13---13/15-13--8/10--10-|-----------------8--10--/13-|
|------------------------|------------------------|----------------------------|
|---------------5---7--7/|10---10/12-10--5/7---7--|-----------------5---7--/10-|
|------------------------|------------------------|----------------------------|
|------------------------|------------------------|----------------------------|

 Bb Maj7                       A7
|----------------------------|-5---5--5-5-5-5-5--5--5-|
|-6--6--6--6-6-6-6-6--6--6-6-|-5---5--5-5-5-5-5--5--5-|
|-7--7--7--7-7-7-7-7--7--7-7-|-6---6--6-6-6-6-6--6--6-|
|-6--6--6--6-6-6-6-6--6--6-6-|-5---5--5-5-5-5-5--5--5-|
|-6--6--6--6-6-6-6-6--6--6-6-|-7---7--7-7-7-7-7--7--7-|
|----------------------------|-5---5--5-5-5-5-5--5--5-|
|                                                     |
|                                                     |
|                                                     |
|                                                     |
|----------sl--------sl------|------------------------|
|-----------/15-13--8/10--10-|----11-10-8----10-------|
|----------------------------|------------------------|
|-----------/12-10--5/7---7--|----8--7--5----7--------|
|----------------------------|------------------------|
|----------------------------|------------------------|

 G                                   C#  F#
|-3--3--3--3--3--3--3--3--|-3--3--3---------------|
|-3--3--3--3--3--3--3--3--|-3--3--3---------------|
|-4--4--4--4--4--4--4--4--|-4--4--4--6------------|
|-5--5--5--5--5--5--5--5--|-5--5--5--6---4----4-4-|
|-5--5--5--5--5--5--5--5--|-5--5--5--4---4----4-4-|
|-3--3--3--3--3--3--3--3--|-3--3--3------2----2-2-|


 Chorus

|-----------------|-----------------|-----------------|-----------------|
|-6---6---6---6---|-6---6---6---6---|-6---6---6---6---|-5---5---5---5---|
|---5---5---5---5-|---4---4---4---4-|---3---3---3---3-|---5---5---5---5-|
|-----------------|-----------------|-----------------|-----------------|
|-----------------|-----------------|-----------------|-----------------|
|-----------------|-----------------|-----------------|-----------------|
|                                                                       |
|                                                                       |
| F                 G                 Bb                 C              |
|-1---------------|-3---------------|------------------|----------------|
|-1---------------|-3---------------|-3----------------|-5--------------|
|-2---------------|-4---------------|-3----------------|-5--------------|
|-3---------------|-5---------------|-3----------------|-5--------------|
|-3---------------|-5---------------|-1----------------|-3--------------|
|-1---------------|-3---------------|------------------|----------------|

   
 
|-----------------|-----------------|-----------------|-----------------|
|-6---6---6---6---|-6---6---6---6---|-6---6---6---6---|-6---6---8---8---|
|---5---5---5---5-|---4---4---4---4-|---3---3---3---3-|---6---6---8---8-|
|-----------------|-----------------|-----------------|-----------------|
|-----------------|-----------------|-----------------|-----------------|
|-----------------|-----------------|-----------------|-----------------|
|                                                                       |
|                                                                       |
| F                 G                 Bb                 Db     Eb      |
|-1---------------|-3---------------|------------------|----------------|
|-1---------------|-3---------------|-3----------------|-5------8-------|
|-2---------------|-4---------------|-3----------------|-5------8-------|
|-3---------------|-5---------------|-3----------------|-5------8-------|
|-3---------------|-5---------------|-1----------------|-3------6-------|
|-1---------------|-3---------------|------------------|----------------|

Guitar Solo

|----------------|----------------------|-----------------------|--------------|
|----------------|--sl------sl----sl----|-----sl----------------|--------------|
|-----12~~~~~----|--/14-----\9----/12---|----12\7~~~~~~~/12-----|----------4---|
|----------------|----------------------|-----------------------|--------------|
|----------------|----------------------|-----------------------|--------------|
|----------------|----------------------|-----------------------|--------------|

  1/2
|-------------|-------------|--x-------15--15-13----|----------------------|
|---}---------|-------------|-----------------------|-----15--15---13------|
|--4----------|-(4)---------|-----------------------|-12-------------------|
|-------------|-------------|-----------------------|-----------------10---|
|-------------|-------------|-----------------------|----------------------|
|-------------|-------------|-----------------------|----------------------|

|---13--------13---13--13--|----13-----13-----13------------13-----|
|------13-11---------------|-11-----13-----11-----11-13--11-----11-|
|--------------------------|---------------------------------------|
|--------------------------|---------------------------------------|
|--------------------------|---------------------------------------|
|--------------------------|---------------------------------------|

|--------13------------13-----------------|----------13--12--12--10-----|------------------|
|-13--11------11-13-11----11-13-----11-11-|-13-11-11-----------------8--|-8--6-/10--6--6-8-|
|--------------------------------10-------|-----------------------------|------------------|
|-----------------------------------------|--------------------------5--|-5--3-/7---3--3-5-|
|-----------------------------------------|-----------------------------|------------------|
|-----------------------------------------|-----------------------------|------------------|

|-------------------|---------------------|
|-8--6-/10--6--6--8-|-8--6--6--9----6-----|
|-------------------|---------------------|
|-5--3-/7---3--3--5-|-5--3--3--6----3-----|
|-------------------|---------------------|
|-------------------|---------------------|

Outro Chorus

|-----------------|-----------------|-----------------|-----------------|
|-6---6---6---6---|-6---6---6---6---|-6---6---6---6---|-5---5---5---5---|
|---5---5---5---5-|---4---4---4---4-|---3---3---3---3-|---5---5---5---5-|
|-----------------|-----------------|-----------------|-----------------|
|-----------------|-----------------|-----------------|-----------------|
|-----------------|-----------------|-----------------|-----------------|
|                                                                       |
|                                                                       |
| F                 G                 Bb                 C              |
|-1---------------|-3---------------|------------------|----------------|
|-1---------------|-3---------------|-3----------------|-5--------------|
|-2---------------|-4---------------|-3----------------|-5--------------|
|-3---------------|-5---------------|-3----------------|-5--------------|
|-3---------------|-5---------------|-1----------------|-3--------------|
|-1---------------|-3---------------|------------------|----------------|

   
 
|-----------------|-----------------|-----------------|---------6-6----6-6----|
|-6---6---6---6---|-6---6---6---6---|-6---6---6---6---|-6---6-------6------6--|
|---5---5---5---5-|---4---4---4---4-|---3---3---3---3-|---6---6---------------|
|-----------------|-----------------|-----------------|-----------------------|
|-----------------|-----------------|-----------------|-----------------------|
|-----------------|-----------------|-----------------|-----------------------|
|                                                                             |
|                                                                             |
| F                 G                 Bb                 Db     Eb            |
|-1---------------|-3---------------|------------------|----------------------|
|-1---------------|-3---------------|-3----------------|-5------8-8-8--8--8-8-|
|-2---------------|-4---------------|-3----------------|-5------8-8-8--8--8-8-|
|-3---------------|-5---------------|-3----------------|-5------8-8-8--8--8-8-|
|-3---------------|-5---------------|-1----------------|-3------6-6-6--6--6-6-|
|-1---------------|-3---------------|------------------|----------------------|

 
|-----------------|---------6-6----6-6----|
|-6---6---6---6---|-6---6-------6------6--|
|---3---3---3---3-|---6---6---------------|
|-----------------|-----------------------|
|-----------------|-----------------------|
|-----------------|-----------------------|
|                                         |
|                                         |
| Bb                 Db     Eb            |
|------------------|----------------------|
|-3----------------|-5------8-8-8--8--8-8-|
|-3----------------|-5------8-8-8--8--8-8-|
|-3----------------|-5------8-8-8--8--8-8-|
|-1----------------|-3------6-6-6--6--6-6-|
|------------------|----------------------|

======================
ALLSONGS PERFORMED BY NUNO BETTENCOURT. THAT MEANS DRUMS, BASS, LEAD GUITAR,RYTHM GUITAR AND VOCALS.
(GARY CHERONE MAKES A GUEST APPEARANCE IN "YOU", FOR ALL YOU EXTREME DIE HARD FANS)

i by no means,take credit for this fantastic
piece of work, thank those wonderful people over
at nuno central.. 

Mintcake
Добавлено: 09.06.2013
Другие материалы по этой песне:
  • Аккорды и текст

Страница создана 09.06.2013
http://primanota.ru/bettencourt-nuno/schizophonic-chords.htm
Привет, Гость.
Предлагаем пройти революционный курс по гитаре.
Подарок от PrimaNota.Ru, забирай!