PrimaNota.ru - самый крупный в мире бесплатный архив песенных текстов, аккордов, табулатур и нот


Betrayer - Bendera Kuning - таба, видео

Регистрация Запомнить меня
Войти через:  Facebook Google Twitter Vk Yandex Mail.ru

Betrayer - Bendera Kuning - таба, видео

Печатать
Просмотров: 82
BETRAYER
Bendera Kuning

Standard Tuning
Moderate :  145




 GUITAR 1 - 2
E||----------------|
B||----------------|
G||-4--------------|
D||-2-----4-----4--|
A||-------2-----2--|
E||----------------|
 ||
E||--------------------------|----------------|--------------------------|----------------|
B||--------------------------|----------------|--------------------------|----------------|
G||--------------------------|-4--------------|--------------------------|-4--------------|
D||-5----5---4----4---4---5--|-2-----4-----4--|-2----2---4----4---4---5--|-2-----4-----4--|
A||-3----3---2----2---2---3--|-------2-----2--|-0----0---2----2---2---3--|-------2-----2--|
E||--------------------------|----------------|--------------------------|----------------|
 ||
E||--------------------------|----------------|--------------------------|--------------------------------|
B|---------------------------|----------------|--------------------------|--------------------------------|
G||--------------------------|-4--------------|--------------------------|-4---4--------------------------|
D||-5----5---4----4---4---5--|-2-----4-----4--|-2----2---4----4---4---5--|-2---2---4---4---5---5---4---5--|
A||-3----3---2----2---2---3--|-------2-----2--|-0----0---2----2---2---3--|---------2---2---3---3---2---3--|
E||--------------------------|----------------|--------------------------|--------------------------------|
 ||
E||--------------------------------|--------------------------------|--------------------------------|
B||--------------------------------|--------------------------------|--------------------------------|
G||-4---4--------------------------|-4---4--------------------------|-4---4--------------------------|
D||-2---2---4---4---5---5---4---5--|-2---2---4---4---5---5---4---5--|-2---2---4---4---5---5---4---5--|
A||---------2---2---3---3---2---3--|---------2---2---3---3---2---3--|---------2---2---3---3---2---3--|
E||--------------------------------|--------------------------------|--------------------------------|





 GUITAR 1
E|----------|--------------------------------|--------------------------------|
B|----------|--------------------------------|--------------------------------|
G|-4--------|-4---4--------------------------|-4---4--------------------------|
D|-2--------|-2---2---4---4---5---5---4---5--|-2---2---4---4---5---5---4---5--|
A|----------|---------2---2---3---3---2---3--|---------2---2---3---3---2---3--|
E|----------|--------------------------------|--------------------------------|
 GUITAR 2
E|----------|--------------------------------|--------------------------------|
B|----------|--------------------------------|--------------------------------|
G|-4--------|--------------------------------|--------------------------------|
D|-2--------|-2---2-------2---2---2-------2--|-2---2-------2---2---2-------2--|
A|----------|-2---2-------2---2---2-------2--|-2---2-------2---2---2-------2--|
E|----------|-0---0-------0---0---0-------0--|-0---0-------0---0---0-------0--|



 GUITAR 1
E|--------------------------------|--------------------------------|--------------------------------|
B|--------------------------------|--------------------------------|--------------------------------|
G|-4---4--------------------------|-4---4--------------------------|-4---4--------------------------|
D|-2---2---4---4---5---5---4---5--|-2---2---4---4---5---5---4---5--|-2---2---4---4---5---5---4---5--|
A|---------2---2---3---3---2---3--|---------2---2---3---3---2---3--|---------2---2---3---3---2---3--|
E|--------------------------------|--------------------------------|--------------------------------|
 GUITAR 2
E|--------------------------------|--------------------------------|--------------------------------|
B|--------------------------------|--------------------------------|--------------------------------|
G|--------------------------------|--------------------------------|--------------------------------|
D|-2---2-------2---2---2-------2--|-2---2-------2---2---2-------2--|-2---2-------2---2---2-------2--|
A|-2---2-------2---2---2-------2--|-2---2-------2---2---2-------2--|-2---2-------2---2---2-------2--|
E|-0---0-------0---0---0-------0--|-0---0-------0---0---0-------0--|-0---0-------0---0---0-------0--|



 GUITAR 1
E|--------------------------------|--------------------------------|--------------------------------|
B|--------------------------------|--------------------------------|--------------------------------|
G|-4---4--------------------------|-4---4--------------------------|-4---4--------------------------|
D|-2---2---4---4---5---5---4---5--|-2---2---4---4---5---5---4---5--|-2---2---4---4---5---5---4---5--|
A|---------2---2---3---3---2---3--|---------2---2---3---3---2---3--|---------2---2---3---3---2---3--|
E|--------------------------------|--------------------------------|--------------------------------|
 GUITAR 2
E|--------------------------------|--------------------------------|--------------------------------|
B|--------------------------------|--------------------------------|--------------------------------|
G|--------------------------------|--------------------------------|--------------------------------|
D|-2---2-------2---2---2-------2--|-2---2-------2---2---2-------2--|-2---2-------2---2---2-------2--|
A|-2---2-------2---2---2-------2--|-2---2-------2---2---2-------2--|-2---2-------2---2---2-------2--|
E|-0---0-------0---0---0-------0--|-0---0-------0---0---0-------0--|-0---0-------0---0---0-------0--|



 GUITAR 1
E|--------------------|--------------------------------|--------------------|------------------------------|
B|--------------------|--------------------------------|--------------------|------------------------------|
G|--------------------|-------------5---4--------------|--------------------|-------------5---4------------|
D|-----------------5--|-4-----------3---2--------------|-----------------5--|-4-----------3---2------------|
A|-2-----3----5----3--|-2---2---2-----------2---5---3--|-2-----3----5----3--|-2---2---2-----------2---5---3-|
E|-0-----1----3-------|-----0---0-----------0---3---1--|-0-----1----3-------|-----0---0-----------0---3---1-|
 GUITAR 2
E|--------------------|--------------------------------|--------------------|------------------------------|
B|--------------------|--------------------------------|--------------------|------------------------------|
G|--------------------|-------------5---4--------------|--------------------|-------------5---4------------|
D|-----------------5--|-4-----------3---2--------------|-----------------5--|-4-----------3---2------------|
A|-2-----3----5----3--|-2---2---2-----------2---5---3--|-2-----3----5----3--|-2---2---2-----------2---5---3-|
E|-0-----1----3-------|-----0---0-----------0---3---1--|-0-----1----3-------|-----0---0-----------0---3---1-|



 GUITAR 1
E|--------------------|--------------------------------|--------------------|------------------------------|
B|--------------------|--------------------------------|--------------------|------------------------------|
G|--------------------|-------------5---4--------------|--------------------|-------------5---4------------|
D|-----------------5--|-4-----------3---2--------------|-----------------5--|-4-----------3---2------------|
A|-2-----3----5----3--|-2---2---2-----------2---5---3--|-2-----3----5----3--|-2---2---2-----------2---5---3-|
E|-0-----1----3-------|-----0---0-----------0---3---1--|-0-----1----3-------|-----0---0-----------0---3---1-|
 GUITAR 2
E|--------------------|--------------------------------|--------------------|------------------------------|
B|--------------------|--------------------------------|--------------------|------------------------------|
G|--------------------|--------------------------------|--------------------|------------------------------|
D|-----------------5--|-4-----------10--9--------------|-----------------5--|-4-----------10--9------------|
A|-2-----3----5----3--|-2---2---2-----------2---5---3--|-2-----3----5----3--|-2---2---2-----------2---5---3-|
E|-0-----1----3-------|-----0---0---8---7---0---3---1--|-0-----1----3-------|-----0---0---8---7---0---3---1-|



 GUITAR 1
E|--------------------|--------------------------------|--------------------|------------------------------|
B|--------------------|--------------------------------|--------------------|------------------------------|
G|--------------------|-------------5---4--------------|--------------------|-------------5---4------------|
D|-----------------5--|-4-----------3---2--------------|-----------------5--|-4-----------3---2------------|
A|-2-----3----5----3--|-2---2---2-----------2---5---3--|-2-----3----5----3--|-2---2---2-----------2---2---2-|
E|-0-----1----3-------|-----0---0-----------0---3---1--|-0-----1----3-------|-----0---0-----------0---0---0-|
 GUITAR 2
E|--------------------|--------------------------------|--------------------|------------------------------|
B|--------------------|--------------------------------|--------------------|------------------------------|
G|--------------------|--------------------------------|--------------------|------------------------------|
D|-----------------5--|-4-----------10--9--------------|-----------------5--|-4-----------10--9------------|
A|-2-----3----5----3--|-2---2---2-----------2---5---3--|-2-----3----5----3--|-2---2---2-----------2---2---2-|
E|-0-----1----3-------|-----0---0---8---7---0---3---1--|-0-----1----3-------|-----0---0---8---7---0---0---0-|



 GUITAR 1
E|----------------------------------|----------------------------------|----------------------------------|
B|----------------------------------|----------------------------------|----------------------------------|
G|----------------------------------|----------------------------------|----------------------------------|
D|----------------------------------|----------------------------------|----------------------------------|
A|---------7-------9-------10--9--7-|---------7-------9-------10--9--7-|---------9-------10------12--10-9-|
E|-7---7-------7-------7------------|-8---8-------8-------8------------|-10--10------10------10-----------|
 GUITAR 2
E|----------------------------------|----------------------------------|----------------------------------|
B|----------------------------------|----------------------------------|----------------------------------|
G|----------------------------------|----------------------------------|----------------------------------|
D|---------5-------7-------9---7--5-|---------5-------7-------9---7--5-|---------7-------9-------10--9--7-|
A|-7---7-------7-------7------------|-7---7-------7-------7------------|-9---9-------9-------9------------|
E|----------------------------------|----------------------------------|----------------------------------|



 GUITAR 1
E|----------------------------------|----------------------------------|----------------------------------|
B|----------------------------------|----------------------------------|----------------------------------|
G|-------------------------7--------|----------------------------------|----------------------------------|
D|---------9-------10----------10-9-|----------------------------------|----------------------------------|
A|----------------------------------|---------7-------9-------10--9--7-|---------7-------9-------10--9--7-|
E|-7---7-------7-------7------------|-7---7-------7-------7------------|-8---8-------8-------8------------|
 GUITAR 2
E|----------------------------------|----------------------------------|----------------------------------|
B|----------------------------------|----------------------------------|----------------------------------|
G|----------------------------------|----------------------------------|----------------------------------|
D|---------5-------7-------9---7--5-|---------5-------7-------9---7--5-|---------5-------7-------9---7--5-|
A|-7---7-------7-------7------------|-7---7-------7-------7------------|-7---7-------7-------7------------|
E|----------------------------------|----------------------------------|----------------------------------|



 GUITAR 1
E|----------------------------------|----------------------------------|--------------------|
B|----------------------------------|----------------------------------|--------------------|
G|----------------------------------|-------------------------7--------|-9---------7----4---|
D|----------------------------------|---------9-------10----------10-9-|--------------------|
A|---------9-------10------12--10-9-|----------------------------------|-7---------5----2---|
E|-10--10------10------10-----------|-7---7-------7-------7------------|--------------------|
 GUITAR 2
E|----------------------------------|----------------------------------|--------------------|
B|----------------------------------|----------------------------------|--------------------|
G|----------------------------------|----------------------------------|-9----11---12---14--|
D|---------7-------9-------10--9--7-|---------5-------7-------9---7--5-|--------------------|
A|-9---9-------9-------9------------|-7---7-------7-------7------------|-7----9----10---12--|
E|----------------------------------|----------------------------------|--------------------|



 GUITAR 1
E|--------------------|--------------------|--------------------|--------------------|
B|--------------------|--------------------|--------------------|--------------------|
G|-5----------9---11--|-7-------5--4----2--|-4------------------|-9----------7----4--|
D|--------------------|--------------------|--------------------|--------------------|
A|-3----------7---9---|-5-------3--2----0--|-2------------------|-7----------5----2--|
E|--------------------|--------------------|--------------------|--------------------|
 GUITAR 2
E|--------------------|--------------------|--------------------|--------------------|
B|--------------------|--------------------|--------------------|--------------------|
G|-16---14---12---11--|-16---14---12---11--|-9----11---12---14--|-9----11---12---14--|
D|--------------------|--------------------|--------------------|--------------------|
A|-14---12---10---9---|-14---12---10---9---|-7----9----10---12--|-7----9----10---12--|
E|--------------------|--------------------|--------------------|--------------------|



 GUITAR 1
E|--------------------|--------------------|---------|-----------------------------------------------------|
B|--------------------|--------------------|---------|-----------------------------------------------------|
G|-5----------9---5---|-7---------12---11--|-9-------|-----------------------------------------------------|
D|--------------------|--------------------|---------|-----------------------------------------------------|
A|-3----------7---3---|-5---------10---9---|-7-------|-2--2--2--2----2--2--2--2----2--2--2--2----2--2--2--2-|
E|--------------------|--------------------|---------|-0--0--0--0----0--0--0--0----0--0--0--0----0--0--0--0-|
 GUITAR 2
E|--------------------|--------------------|---------|-----------------------------------------------------|
B|--------------------|--------------------|---------|-----------------------------------------------------|
G|-16---14---12---11--|-16---14---12---11--|-9-------|-----------------------------------------------------|
D|--------------------|--------------------|--------9-|-9-----------------------------------------7-----5---|
A|-14---12---10---9---|-14---12---10---9---|-7-------|-----------------------------------------------------|
E|--------------------|--------------------|---------|-----------------------------------------------------|



 GUITAR 1
E|-----------------------------------------------------|-----------------------------------------------------|
B|-----------------------------------------------------|-----------------------------------------------------|
G|-----------------------------------------------------|-----------------------------------------------------|
D|-5--5--5--5----5--5--5--5----5--5--5--5----5--5--5--5-|-7--7--7--7----7--7--7--7----7--7--7--7----7--7--7--7-|
A|-3--3--3--3----3--3--3--3----3--3--3--3----3--3--3--3-|-5--5--5--5----5--5--5--5----5--5--5--5----5--5--5--5-|
E|-----------------------------------------------------|-----------------------------------------------------|
 GUITAR 2
E|-----------------------------------------------------|-----------------------------------------------------|
B|-----------------------------------------------------|-----------------------------------------------------|
G|-----------------------------------------------------|-----------------------------------------------------|
D|-4------------------5----------------------4-----5---|-7-----5-------7-----9-------------7-------9-----10--|
A|-----------------------------------------------------|-----------------------------------------------------|
E|-----------------------------------------------------|-----------------------------------------------------|



 GUITAR 1
E|----------------------------------------------------|------------------------------------------------------|
B|----------------------------------------------------|------------------------------------------------------|
G|----------------------------------------------------|------------------------------------------------------|
D|-9--9--9--9---9--9--9--9----9--9--9--9----9--9--9--9-|------------------------------------------------------|
A|-7--7--7--7---7--7--7--7----7--7--7--7----7--7--7--7-|-2--2--2--2----2--2--2--2----2--2--2--2----2--2--2--2-|
E|----------------------------------------------------|-0--0--0--0----0--0--0--0----0--0--0--0----0--0--0--0-|
 GUITAR 2
E|----------------------------------------------------|------------------------------------------------------|
B|----------------------------------------------------|------------------------------------------------------|
G|----------------------------------------------------|------------------------------------------------------|
D|-9--------------------------------------------------|-10-10-9--9----7--7--5--5----9--9--7--7----5--5--4--4-|
A|----------------------------------------------------|------------------------------------------------------|
E|----------------------------------------------------|------------------------------------------------------|



 GUITAR 1
E|-----------------------------------------------------|-----------------------------------------------------|
B|-----------------------------------------------------|-----------------------------------------------------|
G|-----------------------------------------------------|-----------------------------------------------------|
D|-5--5--5--5----5--5--5--5----5--5--5--5----5--5--5--5-|-7--7--7--7----7--7--7--7----7--7--7--7----7--7--7--7-|
A|-3--3--3--3----3--3--3--3----3--3--3--3----3--3--3--3-|-5--5--5--5----5--5--5--5----5--5--5--5----5--5--5--5-|
E|-----------------------------------------------------|-----------------------------------------------------|
 GUITAR 2
E|-----------------------------------------------------|-----------------------------------------------------|
B|-----------------------------------------------------|-----------------------------------------------------|
G|-----------------------------------------------------|-----------------------------------------------------|
D|-7--7--5--5----4--4--2--2----5--5--4--4----2--2--0---|-0-------2----------4--------9--------7---------5----|
A|-----------------------------------------------------|-----------------------------------------------------|
E|-----------------------------------------------------|-----------------------------------------------------|



 GUITAR 1
E|-----------------------------------------------------|-----------------------------------------------------|
B|-----------------------------------------------------|-----------------------------------------------------|
G|-----------------------------------------------------|-----------------------------------------------------|
D|-9--9--9--9----9--9--9--9----9--9--9--9----9--9--9--9-|-----------------------------------------------------|
A|-7--7--7--7----7--7--7--7----7--7--7--7----7--7--7--7-|-2--2--2--2----2--2--2--2----2--2--2--2----2--2--2--2-|
E|-----------------------------------------------------|-0--0--0--0----0--0--0--0----0--0--0--0----0--0--0--0-|
 GUITAR 2
E|-----------------------------------------------------|-----------------------------------------------------|
B|-----------------------------------------------------|-----------------------------------------------------|
G|-----------------------------------------------------|-9---------------------------12----9-------12----14--|
D|-4------------------2--------2-----------------------|-----------------------------------------------------|
A|-----------------------------------------------------|-----------------------------------------------------|
E|-----------------------------------------------------|-----------------------------------------------------|



 GUITAR 1
E|-----------------------------------------------------|-----------------------------------------------------|
B|-----------------------------------------------------|-----------------------------------------------------|
G|-----------------------------------------------------|-----------------------------------------------------|
D|-5--5--5--5----5--5--5--5----5--5--5--5----5--5--5--5-|-7--7--7--7----7--7--7--7----7--7--7--7----7--7--7--7-|
A|-3--3--3--3----3--3--3--3----3--3--3--3----3--3--3--3-|-5--5--5--5----5--5--5--5----5--5--5--5----5--5--5--5-|
E|-----------------------------------------------------|-----------------------------------------------------|
 GUITAR 2
E|-----------------------------------------------------|-----------------------------------------------------|
B|--------------15-------------------------------------|-----------------------------------------------------|
G|-14-----------------14-------------12------11----12--|-14-12-11-9----12-11-9--7----11-9--7--5----9--7--5--4-|
D|-----------------------------------------------------|-----------------------------------------------------|
A|-----------------------------------------------------|-----------------------------------------------------|
E|-----------------------------------------------------|-----------------------------------------------------|



 GUITAR 1
E|-----------------------------------------------------|-----------------------------------------------------|
B|-----------------------------------------------------|-----------------------------------------------------|
G|-----------------------------------------------------|-----------------------------------------------------|
D|-9--9--9--9----9--9--9--9----9--9--9--9----9--9--9--9-|-----------------------------------------------------|
A|-7--7--7--7----7--7--7--7----7--7--7--7----7--7--7--7-|-2--2--2--2----2--2--2--2----2--2--2--2----2--2--2--2-|
E|-----------------------------------------------------|-0--0--0--0----0--0--0--0----0--0--0--0----0--0--0--0-|
 GUITAR 2
E|-----------------------------------------------------|-----------------------------------------------------|
B|-----------------------------------------------------|-----------------------------------------------------|
G|-4---------------------------------------------------|-12-----------11-------------12-----------14---------|
D|-----------------------------------------------------|-----------------------------------------------------|
A|-----------------------------------------------------|-10------------9-------------10-----------12---------|
E|-----------------------------------------------------|-----------------------------------------------------|



 GUITAR 1
E|-----------------------------------------------------|-----------------------------------------------------|
B|-----------------------------------------------------|-----------------------------------------------------|
G|-----------------------------------------------------|-----------------------------------------------------|
D|-5--5--5--5----5--5--5--5----5--5--5--5----5--5--5--5-|-7--7--7--7----7--7--7--7----7--7--7--7----7--7--7--7-|
A|-3--3--3--3----3--3--3--3----3--3--3--3----3--3--3--3-|-5--5--5--5----5--5--5--5----5--5--5--5----5--5--5--5-|
E|-----------------------------------------------------|-----------------------------------------------------|
 GUITAR 2
E|-----------------------------------------------------|-----------------------------------------------------|
B|-----------------------------------------------------|-----------------------------------------------------|
G|-12------------11------------12------------14--------|-16------------14------------12------------11--------|
D|-----------------------------------------------------|-----------------------------------------------------|
A|-10------------9-------------10------------12--------|-14------------12------------10------------9---------|
E|-----------------------------------------------------|-----------------------------------------------------|



 GUITAR 1
E|-----------------------------------------------------|-----------------------------------------------------|
B|-----------------------------------------------------|-----------------------------------------------------|
G|-----------------------------------------------------|-----------------------------------------------------|
D|-9--9--9--9----9--9--9--9----9--9--9--9----9--9--9--9-|-----------------------------------------------------|
A|-7--7--7--7----7--7--7--7----7--7--7--7----7--7--7--7-|-----------------------------------------------------|
E|-----------------------------------------------------|-0--0--0--0----3--3--3--3----2--2--2--2----5--5--5--5-|
 GUITAR 2
E|-----------------------------------------------------|-----------------------------------------------------|
B|-----------------------------------------------------|-----------------------------------------------------|
G|-9---------------------------------------------------|-----------------------------------------------------|
D|-----------------------------------------------------|-----------------------------------------------------|
A|-7---------------------------------------------------|-----------------------------------------------------|
E|-----------------------------------------------------|-0--0--0--0----3--3--3--3----2--2--2--2----5--5--5--5-|





GUITAR 1 & 2
E||---------------------------------------------------|---------------------------------------------------|
B||---------------------------------------------------|---------------------------------------------------|
G||---------------------------------------------------|---------------------------------------------------|
D||---------------------------------------------------|---------------------------------------------------|
A||----------------------------3--3--3--3---2--2--2--2-|---------------------------------------------------|
E||-0--0--0--0---3--3--3--3---------------------------|-0--0--0--0---3--3--3--3---2--2--2--2----5--5--5--5-|
 ||
E||---------------------------------------------------|---------------------------------------------------|
B||---------------------------------------------------|---------------------------------------------------|
G||---------------------------------------------------|---------------------------------------------------|
D||---------------------------------------------------|---------------------------------------------------|
A||----------------------------3--3--3--3---2--2--2--2-|---------------------------------------------------|
E||-0--0--0--0---3--3--3--3---------------------------|-0--0--0--0---3--3--3--3---2--2--2--2----5--5--5--5-|
 ||
E||---------------------------------------------------|---------------------------------------------------|
B||---------------------------------------------------|---------------------------------------------------|
G||---------------------------------------------------|---------------------------------------------------|
D||---------------------------------------------------|---------------------------------------------------|
A||----------------------------3--3--3--3---2--2--2--2-|---------------------------------------------------|
E||-0--0--0--0---3--3--3--3---------------------------|-0--0--0--0---3--3--3--3---2--2--2--2----5--5--5--5-|





GUITAR 1
E|------------------------------------------------------|--------------------------------------|
B|------------------------------------------------------|--------------------------------------|
G|------------------------------------------------------|--------------------------------------|
D|------------------------------------------------------|--------------------------------------|
A|-----------------------------3--3--3--3----2--2--2--2-|-10--------10--------10--------10--12-|
E|-0--0--0--0----3--3--3--3-----------------------------|-----0--0------0--0------0--0---------|
 GUITAR 2
E|------------------------------------------------------|--------------------------------------|
B|------------------------------------------------------|--------------------------------------|
G|------------------------------------------------------|--------------------------------------|
D|------------------------------------------------------|--------------------------------------|
A|-----------------------------3--3--3--3----2--2--2--2-|-7----------7---------7----------7--8-|
E|-0--0--0--0----3--3--3--3-----------------------------|-----0--0------0--0------0--0---------|



 GUITAR 1
E|--------------------------------------|--------------------------------------|
B|--------------------------------------|--------------------------------------|
G|--------------------------------------|--------------------------------------|
D|--------------------------------------|--------------------------------------|
A|-9---------9---------9---------9---15-|-14--------14--------14--------14--15-|
E|-----0--0------0--0------0--0---------|-----0--0------0--0------0--0---------|
 GUITAR 2
E|--------------------------------------|--------------------------------------|
B|--------------------------------------|--------------------------------------|
G|--------------------------------------|--------------------------------------|
D|--------------------------------------|--------------------------------------|
A|-5---------5---------5---------5---8--|-7---------7---------7---------7---8--|
E|-----0--0------0--0------0--0---------|-----0--0------0--0------0--0---------|



 GUITAR 1
E|------------------------------|-------------------------------------|-------------------------------------|
B|------------------------------|-------------------------------------|-------------------------------------|
G|------------------------------|-------------------------------------|-------------------------------------|
D|------------------------------|-------------------------------------|-------------------------------------|
A|-7---7---7---7---5---5---3---3-|-10--------10--------10--------10--12-|-9---------9---------9---------9---15-|
E|-5---5---5---5---3---3---1---1-|-----0--0------0--0------0--0--------|-----0--0------0--0------0--0--------|
 GUITAR 2
E|------------------------------|-------------------------------------|-------------------------------------|
B|------------------------------|-------------------------------------|-------------------------------------|
G|------------------------------|-------------------------------------|-------------------------------------|
D|------------------------------|-------------------------------------|-------------------------------------|
A|-7---7---7---7---5---5---3---3-|-7---------7---------7---------7---8-|-5---------5---------5---------5---8-|
E|-5---5---5---5---3---3---1---1-|-----0--0------0--0------0--0--------|-----0--0------0--0------0--0--------|



 GUITAR 1
E|-------------------------------------|------------------------------|-------------------------------------|
B|-------------------------------------|------------------------------|-------------------------------------|
G|-------------------------------------|------------------------------|-------------------------------------|
D|-------------------------------------|------------------------------|-------------------------------------|
A|-14--------14--------14--------14--15-|-7---7---7---7---5---5---3---3-|-10--------10--------10--------10--12-|
E|-----0--0------0--0------0--0--------|-5---5---5---5---3---3---1---1-|-----0--0------0--0------0--0--------|
 GUITAR 2
E|-------------------------------------|------------------------------|-------------------------------------|
B|-------------------------------------|------------------------------|-------------------------------------|
G|-------------------------------------|------------------------------|-------------------------------------|
D|-------------------------------------|------------------------------|-------------------------------------|
A|-7---------7---------7---------7---8-|-7---7---7---7---5---5---3---3-|-7---------7---------7---------7---8-|
E|-----0--0------0--0------0--0--------|-5---5---5---5---3---3---1---1-|-----0--0------0--0------0--0--------|



 GUITAR 1
E|--------------------------------------|--------------------------------------|
B|--------------------------------------|--------------------------------------|
G|--------------------------------------|--------------------------------------|
D|--------------------------------------|--------------------------------------|
A|-9---------9---------9---------9---15-|-14--------14--------14--------14--15-|
E|-----0--0------0--0------0--0---------|-----0--0------0--0------0--0---------|
 GUITAR 2
E|--------------------------------------|--------------------------------------|
B|--------------------------------------|--------------------------------------|
G|--------------------------------------|--------------------------------------|
D|--------------------------------------|--------------------------------------|
A|-5---------5---------5---------5---8--|-7---------7---------7---------7---8--|
E|-----0--0------0--0------0--0---------|-----0--0------0--0------0--0---------|



 GUITAR 1
E|------------------------------|-------------------------------------|-------------------------------------|
B|------------------------------|-------------------------------------|-------------------------------------|
G|------------------------------|-------------------------------------|-------------------------------------|
D|------------------------------|-------------------------------------|-------------------------------------|
A|-7---7---7---7---5---5---3---3-|-10--------10--------10--------10--12-|-9---------9---------9---------9---15-|
E|-5---5---5---5---3---3---1---1-|-----0--0------0--0------0--0--------|-----0--0------0--0------0--0--------|
 GUITAR 2
E|------------------------------|-------------------------------------|-------------------------------------|
B|------------------------------|-------------------------------------|-------------------------------------|
G|------------------------------|-------------------------------------|-------------------------------------|
D|------------------------------|-------------------------------------|-------------------------------------|
A|-7---7---7---7---5---5---3---3-|-7---------7---------7---------7---8-|-5---------5---------5---------5---8-|
E|-5---5---5---5---3---3---1---1-|-----0--0------0--0------0--0--------|-----0--0------0--0------0--0--------|



 GUITAR 1
E|--------------------------------------|--------------------------------|----------------|
B|--------------------------------------|--------------------------------|----------------|
G|--------------------------------------|--------------------------------|-4--------------|
D|--------------------------------------|--------------------------------|-2-----4-----4--|
A|-14--------14--------14--------14--15-|-7---7---7---7---5---5---3---3--|-------2-----2--|
E|-----0--0------0--0------0--0---------|-5---5---5---5---3---3---1---1--|----------------|
 GUITAR 2
E|--------------------------------------|--------------------------------|----------------|
B|--------------------------------------|--------------------------------|----------------|
G|--------------------------------------|--------------------------------|-4--------------|
D|--------------------------------------|--------------------------------|-2-----4-----4--|
A|-7---------7---------7---------7---8--|-7---7---7---7---5---5---3---3--|-------2-----2--|
E|-----0--0------0--0------0--0---------|-5---5---5---5---3---3---1---1--|----------------|



 GUITAR 1
E|--------------------------|----------------|--------------------------|----------------|
B|--------------------------|----------------|--------------------------|----------------|
G|--------------------------|-4--------------|--------------------------|-4--------------|
D|-5----5---4----4---4---5--|-2-----4-----4--|-2----2---4----4---4---5--|-2-----4-----4--|
A|-3----3---2----2---2---3--|-------2-----2--|-0----0---2----2---2---3--|-------2-----2--|
E|--------------------------|----------------|--------------------------|----------------|
 GUITAR 2
E|--------------------------|----------------|--------------------------|----------------|
B|--------------------------|----------------|--------------------------|----------------|
G|--------------------------|-4--------------|--------------------------|-4--------------|
D|-5----5---4----4---4---5--|-2-----4-----4--|-2----2---4----4---4---5--|-2-----4-----4--|
A|-3----3---2----2---2---3--|-------2-----2--|-0----0---2----2---2---3--|-------2-----2--|
E|--------------------------|----------------|--------------------------|----------------|



 GUITAR 1
E|--------------------------|----------------|--------------------------|--------------------------------|
B|--------------------------|----------------|--------------------------|--------------------------------|
G|--------------------------|-4--------------|--------------------------|-4---4--------------------------|
D|-5----5---4----4---4---5--|-2-----4-----4--|-2----2---4----4---4---5--|-2---2---4---4---5---5---4---5--|
A|-3----3---2----2---2---3--|-------2-----2--|-0----0---2----2---2---3--|---------2---2---3---3---2---3--|
E|--------------------------|----------------|--------------------------|--------------------------------|
 GUITAR 2
E|--------------------------|----------------|--------------------------|--------------------------------|
B|--------------------------|----------------|--------------------------|--------------------------------|
G|--------------------------|-4--------------|--------------------------|-4---4--------------------------|
D|-5----5---4----4---4---5--|-2-----4-----4--|-2----2---4----4---4---5--|-2---2---4---4---5---5---4---5--|
A|-3----3---2----2---2---3--|-------2-----2--|-0----0---2----2---2---3--|---------2---2---3---3---2---3--|
E|--------------------------|----------------|--------------------------|--------------------------------|



 GUITAR 1
E|--------------------------------|--------------------------------|--------------------------------|
B|--------------------------------|--------------------------------|--------------------------------|
G|-4---4--------------------------|-4---4--------------------------|-4---4--------------------------|
D|-2---2---4---4---5---5---4---5--|-2---2---4---4---5---5---4---5--|-2---2---4---4---5---5---4---5--|
A|---------2---2---3---3---2---3--|---------2---2---3---3---2---3--|---------2---2---3---3---2---3--|
E|--------------------------------|--------------------------------|--------------------------------|
 GUITAR 2
E|--------------------------------|--------------------------------|--------------------------------|
B|--------------------------------|--------------------------------|--------------------------------|
G|-4---4--------------------------|-4---4--------------------------|-4---4--------------------------|
D|-2---2---4---4---5---5---4---5--|-2---2---4---4---5---5---4---5--|-2---2---4---4---5---5---4---5--|
A|---------2---2---3---3---2---3--|---------2---2---3---3---2---3--|---------2---2---3---3---2---3--|
E|--------------------------------|--------------------------------|--------------------------------|



 GUITAR 1
E|----------|--------------------------------|--------------------------------|
B|----------|--------------------------------|--------------------------------|
G|-4--------|-4---4--------------------------|-4---4--------------------------|
D|-2--------|-2---2---4---4---5---5---4---5--|-2---2---4---4---5---5---4---5--|
A|----------|---------2---2---3---3---2---3--|---------2---2---3---3---2---3--|
E|----------|--------------------------------|--------------------------------|
 GUITAR 2
E|----------|--------------------------------|--------------------------------|
B|----------|--------------------------------|--------------------------------|
G|-4--------|--------------------------------|--------------------------------|
D|-2--------|-2---2-------2---2---2-------2--|-2---2-------2---2---2-------2--|
A|----------|-2---2-------2---2---2-------2--|-2---2-------2---2---2-------2--|
E|----------|-0---0-------0---0---0-------0--|-0---0-------0---0---0-------0--|



 GUITAR 1
E|--------------------------------|--------------------------------|--------------------------------|
B|--------------------------------|--------------------------------|--------------------------------|
G|-4---4--------------------------|-4---4--------------------------|-4---4--------------------------|
D|-2---2---4---4---5---5---4---5--|-2---2---4---4---5---5---4---5--|-2---2---4---4---5---5---4---5--|
A|---------2---2---3---3---2---3--|---------2---2---3---3---2---3--|---------2---2---3---3---2---3--|
E|--------------------------------|--------------------------------|--------------------------------|
 GUITAR 2
E|--------------------------------|--------------------------------|--------------------------------|
B|--------------------------------|--------------------------------|--------------------------------|
G|--------------------------------|--------------------------------|--------------------------------|
D|-2---2-------2---2---2-------2--|-2---2-------2---2---2-------2--|-2---2-------2---2---2-------2--|
A|-2---2-------2---2---2-------2--|-2---2-------2---2---2-------2--|-2---2-------2---2---2-------2--|
E|-0---0-------0---0---0-------0--|-0---0-------0---0---0-------0--|-0---0-------0---0---0-------0--|



 GUITAR 1
E|--------------------------------|--------------------------------|--------------------------------|
B|--------------------------------|--------------------------------|--------------------------------|
G|-4---4--------------------------|-4---4--------------------------|-4---4--------------------------|
D|-2---2---4---4---5---5---4---5--|-2---2---4---4---5---5---4---5--|-2---2---4---4---5---5---4---5--|
A|---------2---2---3---3---2---3--|---------2---2---3---3---2---3--|---------2---2---3---3---2---3--|
E|--------------------------------|--------------------------------|--------------------------------|
 GUITAR 2
E|--------------------------------|--------------------------------|--------------------------------|
B|--------------------------------|--------------------------------|--------------------------------|
G|--------------------------------|--------------------------------|--------------------------------|
D|-2---2-------2---2---2-------2--|-2---2-------2---2---2-------2--|-2---2-------2---2---2-------2--|
A|-2---2-------2---2---2-------2--|-2---2-------2---2---2-------2--|-2---2-------2---2---2-------2--|
E|-0---0-------0---0---0-------0--|-0---0-------0---0---0-------0--|-0---0-------0---0---0-------0--|



 GUITAR 1
E|-----| ||
B|-----| ||
G|-----| ||
D|-2---| ||
A|-2---| ||
E|-0---| ||
 GUITAR 2
E|-----| ||
B|-----| ||
G|-----| ||
D|-2---| ||
A|-2---| ||
E|-0---| || 
Добавлено: 11.12.2015
Другие материалы по этой песне:

Страница создана 23.10.2014
http://primanota.ru/betrayer/bendera-kuning-chords.htm
Привет, Гость.
Предлагаем пройти революционный курс по гитаре.
Подарок от PrimaNota.Ru, забирай!