PrimaNota.ru - самый крупный в мире бесплатный архив песенных текстов, аккордов, табулатур и нот


Betontod - Nichts - таба, видео

Регистрация Запомнить меня
Войти через:  Facebook Google Twitter Vk Yandex Mail.ru

Betontod - Nichts - таба, видео

Печатать
Просмотров: 202
Intro:

E---------------------------------|
B---------------------------------|
G---------------------------------|  x2
D-----4-----4-----4-----4-----4-4-|
A-2-2-2-2-2-2-2-2-2-2-2-2-2-2-2-2-|
E---------------------------------|


E---------------------------------|
B---------------------------------|
G---------------------------------|
D-----4-----4-----4-----4-----4-4-|
A-2-2-2-2-2-2-2-2-2-2-2-2-2-2-2-2-|
E---------------------------------|
|
|                                      x8
|
E---------------------------------|
B---------------------------------|
G----11-----9-----7-----6-----6h7-|
D---------------------------------|
A---------------------------------|
E---------------------------------|


Break:

E---------------------------------|
B---------------------------------|
G---------------------------------|
D-4-4------------4-4--------------|
A-2-2--0-2-4-2-0-2-2--0-2-4-2-0---|
E---------------------------------|

E---------------------------------|
B---------------------------------|
G---------------------------------|
D---------------------2-2---------|
A-5-5--0-2-4-2-0-4-4--0-0---------|
E-3-3------------2-2--------------|

Verse: x2

E-----------------------------------|
B-----------------------------------|
G-----------------------------------|
D-9-----------9-9-9-------------9-9-|
A-9-----------9-9-9-------------9-9-|
E-7-7-7-7-7-7-7-7-7-7-7-7-7-7-7-7-7-|

E---------------------------------|
B---------------------------------|
G---------------------------------|
D-5---------------4-------7-----7-|
A-5---------------4-------7-----7-|
E-3-3-3-3-3-3-3-3-2-2-2-2-5-5-5-5-|


Chorus: x2

E---------------------------------|
B---------------------------------|
G---------------------------------|
D-9-9-9-9-9-9-9-9-5-5-5-5-5-5-5-5-|
A-9-9-9-9-9-9-9-9-7-5-5-5-5-5-5-5-|
E-7-7-7-7-7-7-7-7-3-3-3-3-3-3-3-3-|

E---------------------------------|
B---------------------------------|
G-7-7-7-7-7-7-7-7-----------------|
D-7-7-7-7-7-7-7-7-4-4-4-4-4-4-5-5-|
A-5-5-5-5-5-5-5-5-4-4-4-4-4-4-5-5-|
E-----------------2-2-2-2-2-2-7-7-|

Postchorus

E-------------------|
B-------------------|
G-------------------|  x3
D-9-9-7-9-9-9-9-7-9-|
A-9-9-7-9-9-9-9-7-9-|
E-7-7---7-7-7-7---7-|


Bassbreak (for Guitar)

E---------------------------------|
B---------------------------------|
G---------------------------------|
D---------------------------------|
A-----------5-5-5-5-5-4-0-2-------|
E-7--7-5--5-----------------------|


Rythm under Solo

E---------------------------------|
B---------------------------------|
G---------------------------------|
D-4-4------------4-4--------------|
A-2-2------------2-2--------------|
E---------------------------------|

E---------------------------------|
B---------------------------------|
G---------------------------------|
D---------------------2-2---------|
A-5-5------------4-4--0-0---------|
E-3-3------------2-2--------------|


Structure:

Intro
Break
Verse
Break
Chorus
Postchorus
Bassbreak
Verse
Break
Chorus
Solo x2
Chorus
Postchorus
Bassbreak
Добавлено: 04.06.2012
Другие материалы по этой песне:
  • Аккорды и текст

Страница создана 04.06.2012
http://primanota.ru/betontod/nichts-chords.htm
Привет, Гость.
Предлагаем пройти революционный курс по гитаре.
Подарок от PrimaNota.Ru, забирай!