PrimaNota.ru - самый крупный в мире бесплатный архив песенных текстов, аккордов, табулатур и нот


Betontod - 7 Schuss - таба, видео

Регистрация Запомнить меня
Войти через:  Facebook Google Twitter Vk Yandex Mail.ru

Betontod - 7 Schuss - таба, видео

Печатать
Просмотров: 225
Band:  Betontod 
Titel: 7 Schuss

Tabbed by Jan Wiegand


Intro

   Gitarre 1
|e|-----3-------3---|-----3-------3---|-----------------|-----------------|
|H|---4---4---4---4-|---4---4---4---4-|--------6--------|--------6--------| 
|G|-5-------5-------|-5-------5-------|--5/7--------7---|--5/7--------7---|   
|D|-----------------|-----------------|-----------------|-----------------|   
|A|-----------------|-----------------|-----------------|-----------------|    
|E|-----------------|-----------------|-----------------|-----------------|     
| | . . . . . . . .   . . . . . . . .						 
| |                                                                         2x
| |Gitarre 2									 
|e|-----------------|-----------------|-----------------|-----------------|    
|H|-----------------|-----------------|-----------------|-----------------|   
|G|-5-5-5-5-5-5-5-5-|-5-5-5-5-5-5-5-5-|-----------------|-----------------| 
|D|-5-5-5-5-5-5-5-5-|-5-5-5-5-5-5-5-5-|-5-5-5-5-5-5-5-5-|-5-5-5-5-5-5-5-5-| 
|A|-3-3-3-3-3-3-3-3-|-3-3-3-3-3-3-3-3-|-5-5-5-5-5-5-5-5-|-5-5-5-5-5-5-5-5-| 
|E|-----------------|-----------------|-3-3-3-3-3-3-3-3-|-3-3-3-3-3-3-3-3-|
   . . . . . . . .   . . . . . . . .     . .   . .   .     . .   . .   .

   
   Gitarre 1
|e|-----------------|-----------------|-----------------|-----------------|
|H|-----------------|-----------------|-----------------|-----------------|
|G|-----------------|-----------------|-----------------|-----------------|
|D|-----------------|---------------8-|--7-8-7-5------7-|-5-7-8-5---------|
|A|-6------3----5-3-|-6------3--------|-----------------|-----------------|
|E|-----------------|-----------------|-----------------|-----------------|
| |									
| |                                                                         2x
| |Gitarre 2									
|e|-----------------|-----------------|-----------------|-----------------|     
|H|-----------------|-----------------|-----------------|-----------------|    
|G|-5---------------|-5---------------|-3-3-3-3-3-3-3-3-|-3-3-3-3-3-3-3-3-|   
|D|-5---------------|-5---------------|-5-5-5-5-5-5-5-5-|-5-5-5-5-5-5-5-5-|  
|A|-3---------------|-3---------------|-5-5-5-5-5-5-5-5-|-5-5-5-5-5-5-5-5-| 
|E|-----------------|-----------------|-3-3-3-3-3-3-3-3-|-3-3-3-3-3-3-3-3-|
                                        . .   . .   .     . .   . .   .


Verse 2x 
   				      
Gitarre 1 & 2


e|-----------------|-----------------|-----------------|-----------------|
H|-----------------|-----------------|-----------------|-----------------|
G|-5-5-5-5-5-5-5-5-|-----------------|-----------------|-----------------|
D|-5-5-5-5-5-5-5-5-|-6-6-6-6-6-6-6-6-|-8-8-8-8-8-8-8-8-|-5-5-5-5-5-5-5-5-|
A|-3-3-3-3-3-3-3-3-|-6-6-6-6-6-6-6-6-|-8-8-8-8-8-8-8-8-|-5-5-5-5-5-5-5-5-|
E|-----------------|-4-4-4-4-4-4-4-4-|-6-6-6-6-6-6-6-6-|-3-3-3-3-3-3-3-3-|

e|-----------------|-----------------|-----------------|-----------------|
H|-----------------|-----------------|-----------------|-----------------|
G|-5-5-5-5-5-5-5-5-|-----------------|-----------------|-----------------|
D|-5-5-5-5-5-5-5-5-|-6-6-6-6-6-6-6-6-|-8-8-8-8-8-8-8-8-|-8-8-8-8-8-8-8-8-|
A|-3-3-3-3-3-3-3-3-|-6-6-6-6-6-6-6-6-|-8-8-8-8-8-8-8-8-|-8-8-8-8-8-8-8-8-|
E|-----------------|-4-4-4-4-4-4-4-4-|-6-6-6-6-6-6-6-6-|-6-6-6-6-6-6-6-6-|

e|-----------------|-----------------|-----------------|-----------------|
H|-----------------|-----------------|-----------------|-----------------|
G|-5-5-5-5-5-5-5-5-|-----------------|-----------------|-----------------|
D|-5-5-5-5-5-5-5-5-|-6-6-6-6-6-6-6-6-|-8-8-8-8-8-8-8-8-|-5-5-5-5-5-5-5-5-|
A|-3-3-3-3-3-3-3-3-|-6-6-6-6-6-6-6-6-|-8-8-8-8-8-8-8-8-|-5-5-5-5-5-5-5-5-|
E|-----------------|-4-4-4-4-4-4-4-4-|-6-6-6-6-6-6-6-6-|-3-3-3-3-3-3-3-3-|

e|-----------------|-----------------|-----------------|-----------------|
H|-----------------|-----------------|-----------------|-----------------|
G|-----------------|-----------------|-----------------|-----------------|
D|-3-3-3-3-3-3-3-3-|-3-3-3-3-3-3-3-3-|-5-5-5-5-5-5-5-5-|-5-5-5-5-5-5-5-5-|
A|-3-3-3-3-3-3-3-3-|-3-3-3-3-3-3-3-3-|-5-5-5-5-5-5-5-5-|-5-5-5-5-5-5-5-5-|
E|-1-1-1-1-1-1-1-1-|-1-1-1-1-1-1-1-1-|-3-3-3-3-3-3-3-3-|-3-3-3-3-3-3-3-3-|

Ein traum in der nacht ich werde schweißgebadet wach
dieser traum der immer wieder kehrt
was wär gewesen wenn und aber und vielleicht
doch diese fragen werden nie geklärt

kannst du mich hörn wenn ich diese zeilen singe
oder werden sie wie die zeit vergehn ?
ein moment der alles ändert und doch so schnell vergeht
ich werd es wohl niemals verstehn


Chorus

Gitarre 1 & 2

e|-----------------|-----------------|-----------------|-----------------|
H|-----------------|-----------------|-----------------|-----------------|
G|-5-5-5-5-5-5-5-5-|-----------------|-8-8-8-8-8-8-8-8-|-----------------| 4x
D|-5-5-5-5-5-5-5-5-|-6-6-6-6-6-6-6-6-|-8-8-8-8-8-8-8-8-|-8-8-8-8-8-8-8-8-|
A|-3-3-3-3-3-3-3-3-|-6-6-6-6-6-6-6-6-|-6-6-6-6-6-6-6-6-|-8-8-8-8-8-8-8-8-|
E|-----------------|-4-4-4-4-4-4-4-4-|-----------------|-6-6-6-6-6-6-6-6-|

nur ein tag nur ein tag möchte ich dich wieder sehn
nur ein tag nur ein tag um das alles zu verstehn
nur ein tag nur ein tag möchte ich dich wieder sehn
nur ein tag nur ein tag um das alles alles zu verstehn


Bridge

Gitarre 1 & 2

e|-----------------|-----------------|-----------------|-----------------|
H|-----------------|-----------------|-----------------|-----------------|
G|-5---------------|-------------5-5-|-----------------|-----------------| 2x
D|-5---------------|-------------5-5-|-6-----------6-6-|-3---------------|
A|-3---------------|-------------3-3-|-6-----------6-6-|-3---------------|
E|-----------------|-----------------|-4-----------4-4-|-1---------------|
                                 . .               . .

   Gitarre 1
|e|-----------------|-----------------|-----------------|-----------------|
|H|-----------------|-----------------|-----------------|-----------------|
|G|-----------------|-----------------|-----------------|-----------------|
|D|-----1--0--------|--1--0-----------|-----1--0--1-3---|-1--0h1p0--------|  
|A|-3-3-------1-3---|----------1-3----|-3-3-------------|-----------1-----|    
|E|-----------------|-----------------|-----------------|-----------------|	
| | . .       . .              . .      . .					 
| |                                                                         2x
| |Gitarre 2								
|e|-----------------|-----------------|-----------------|-----------------|     
|H|-----------------|-----------------|-----------------|-----------------|    
|G|-5-5-5-5-5-5-5-5-|-5-5-5-5-5-5-5-5-|-----------------|-----------------|   
|D|-5-5-5-5-5-5-5-5-|-5-5-5-5-5-5-5-5-|-6-6-6-6-6-6-6-6-|-3-3-3-3-3-3-3-3-|  
|A|-3-3-3-3-3-3-3-3-|-3-3-3-3-3-3-3-3-|-6-6-6-6-6-6-6-6-|-3-3-3-3-3-3-3-3-| 
|E|-----------------|-----------------|-4-4-4-4-4-4-4-4-|-1-1-1-1-1-1-1-1-|
    . . . . . . . .   . . . . . . . .   . . . . . . . .   . . . . . . . .


Verse 2x 
   				      
Gitarre 1 & 2


e|-----------------|-----------------|-----------------|-----------------|
H|-----------------|-----------------|-----------------|-----------------|
G|-5-5-5-5-5-5-5-5-|-----------------|-----------------|-----------------|
D|-5-5-5-5-5-5-5-5-|-6-6-6-6-6-6-6-6-|-8-8-8-8-8-8-8-8-|-5-5-5-5-5-5-5-5-|
A|-3-3-3-3-3-3-3-3-|-6-6-6-6-6-6-6-6-|-8-8-8-8-8-8-8-8-|-5-5-5-5-5-5-5-5-|
E|-----------------|-4-4-4-4-4-4-4-4-|-6-6-6-6-6-6-6-6-|-3-3-3-3-3-3-3-3-|

e|-----------------|-----------------|-----------------|-----------------|
H|-----------------|-----------------|-----------------|-----------------|
G|-5-5-5-5-5-5-5-5-|-----------------|-----------------|-----------------|
D|-5-5-5-5-5-5-5-5-|-6-6-6-6-6-6-6-6-|-8-8-8-8-8-8-8-8-|-8-8-8-8-8-8-8-8-|
A|-3-3-3-3-3-3-3-3-|-6-6-6-6-6-6-6-6-|-8-8-8-8-8-8-8-8-|-8-8-8-8-8-8-8-8-|
E|-----------------|-4-4-4-4-4-4-4-4-|-6-6-6-6-6-6-6-6-|-6-6-6-6-6-6-6-6-|

e|-----------------|-----------------|-----------------|-----------------|
H|-----------------|-----------------|-----------------|-----------------|
G|-5-5-5-5-5-5-5-5-|-----------------|-----------------|-----------------|
D|-5-5-5-5-5-5-5-5-|-6-6-6-6-6-6-6-6-|-8-8-8-8-8-8-8-8-|-5-5-5-5-5-5-5-5-|
A|-3-3-3-3-3-3-3-3-|-6-6-6-6-6-6-6-6-|-8-8-8-8-8-8-8-8-|-5-5-5-5-5-5-5-5-|
E|-----------------|-4-4-4-4-4-4-4-4-|-6-6-6-6-6-6-6-6-|-3-3-3-3-3-3-3-3-|

e|-----------------|-----------------|-----------------|-----------------|
H|-----------------|-----------------|-----------------|-----------------|
G|-----------------|-----------------|-----------------|-----------------|
D|-3-3-3-3-3-3-3-3-|-3-3-3-3-3-3-3-3-|-5-5-5-5-5-5-5-5-|-5-5-5-5-5-5-5-5-|
A|-3-3-3-3-3-3-3-3-|-3-3-3-3-3-3-3-3-|-5-5-5-5-5-5-5-5-|-5-5-5-5-5-5-5-5-|
E|-1-1-1-1-1-1-1-1-|-1-1-1-1-1-1-1-1-|-3-3-3-3-3-3-3-3-|-3-3-3-3-3-3-3-3-|

unzurechnungsfähig?
was heißt das heute schon?
ein wort das alle Schuld erschlägt
wer kann das beurteilen?
wer trägt die konsequenz?

wer kann diese welt nur je verstehn?

alles was jetzt bleibt ist ein schweigen
und der tag an dem alles zu ende ging
alles was jetzt bleibt ist die erinnerung
an einen menschen und 7 schuss - schuss


Chorus

Gitarre 1 & 2

e|-----------------|-----------------|-----------------|-----------------|
H|-----------------|-----------------|-----------------|-----------------|
G|-5-5-5-5-5-5-5-5-|-----------------|-8-8-8-8-8-8-8-8-|-----------------| 2x
D|-5-5-5-5-5-5-5-5-|-6-6-6-6-6-6-6-6-|-8-8-8-8-8-8-8-8-|-8-8-8-8-8-8-8-8-|
A|-3-3-3-3-3-3-3-3-|-6-6-6-6-6-6-6-6-|-6-6-6-6-6-6-6-6-|-8-8-8-8-8-8-8-8-|
E|-----------------|-4-4-4-4-4-4-4-4-|-----------------|-6-6-6-6-6-6-6-6-|

nur ein tag nur ein tag möchte ich dich wieder sehn
nur ein tag nur ein tag um das alles zu verstehn


Outro

e|-----------------|-----------------|-----------------|-----------------|
H|-----------------|-----------------|-----------------|-----------------|
G|-5-5-5-5-5-5-5-5-|-----------------|-8-8-8-8-8-8-8-8-|-----------------| 
D|-5-5-5-5-5-5-5-5-|-5-5-5-5-5-5-5-5-|-8-8-8-8-8-8-8-8-|-8-8-8-8-8-8-8-8-|
A|-3-3-3-3-3-3-3-3-|-5-5-5-5-5-5-5-5-|-6-6-6-6-6-6-6-6-|-8-8-8-8-8-8-8-8-|
E|-----------------|-3-3-3-3-3-3-3-3-|-----------------|-6-6-6-6-6-6-6-6-|
   . . . . . . . .   . . . . . . . .   . . . . . . . .   . . . . . . . .

und die zeit heilt alle wunden du bist tod und er ist frei


e|-----------------|-----------------|-----------------|-----------------|
H|-----------------|-----------------|-----------------|-----------------|
G|-5-5-5-5-5-5-5-5-|-----------------|-8-8-8-8-7-7-7-7-|-5-5-5-5-5-5-5-5-| 
D|-5-5-5-5-5-5-5-5-|-5-5-5-5-5-5-5-5-|-8-8-8-8-7-7-7-7-|-5-5-5-5-5-5-5-5-|
A|-3-3-3-3-3-3-3-3-|-5-5-5-5-5-5-5-5-|-6-6-6-6-5-5-5-5-|-3-3-3-3-3-3-3-3-|
E|-----------------|-3-3-3-3-3-3-3-3-|-----------------|-----------------|
   . . . . . . . .   . . . . . . . .   . . . . . . . .   . . . . . . . .

und die zeit heilt alle wunden du bist tod und er ist frei

e|-----------------|-----------------|
H|-----------------|-----------------|
G|-8-8-8-8-7-7-7-7-|-5-5-5-5-5-5-5-5-| 4x
D|-8-8-8-8-7-7-7-7-|-5-5-5-5-5-5-5-5-|
A|-6-6-6-6-5-5-5-5-|-3-3-3-3-3-3-3-3-|
E|-----------------|-----------------|

du bist tod und er ist frei
du bist tod und er ist frei
du bist tod und er ist frei
du bist tod und er ist frei
Добавлено: 22.04.2012
Другие материалы по этой песне:
  • Аккорды и текст

Страница создана 22.04.2012
http://primanota.ru/betontod/7-schuss-chords.htm
Привет, Гость.
Предлагаем пройти революционный курс по гитаре.
Подарок от PrimaNota.Ru, забирай!