PrimaNota.ru - самый крупный в мире бесплатный архив песенных текстов, аккордов, табулатур и нот


Bethlehem - Veiled Irreligion - текст песни, таба, видео

Регистрация Запомнить меня
Войти через:  Facebook Google Twitter Vk Yandex Mail.ru

Bethlehem - Veiled Irreligion - текст песни, таба, видео

Печатать
Просмотров: 130
-- File created with Instab -
http://www.pconline.com/~smcarey/instab.html --#
#---------------------------------------------------------------------------
--#

Author/Artist: BETHLEHEM
Title: VEILED IRRELIGION
Album: DARK METAL
Transcribed by: KERNOUS
Email: KERNOUS@RELAPSECULT.COM

TUNE DOWN 3 1/2 STEPS DOWN.LISTEN TO THE SONG FOR CORRECT TIMING.
I PLAY IT THIS SONG ON A SEVEN STRING TUNED DOWN ONE STEP BUT YOU
CAN PROBABLY PLAY IT EASIER TUNED DOWN 2 1/2 STEPS.
   riff1
-|---------------------------------------------------|
-|---------------------------------------------------|
-|---------------------------------------------------|
-|-4----4--------7----6--6--4----4--------7----3--3--|
-|-4----4-------------------4----4-------------------|
-|-2----2-------------------2----2-------------------|

   riff2
-|-----------------------------------------------
-|-----------------------------------------------
-|-----------------------------------------------
-|-4--4--4--4--4-4-8-7-8-7--7--7--7--7-7-7-7-7-6-
-|-4--4--4--4--4-4-8-7-8-7--7--7--7--7-7-5-5-5-4-
-|-2--2--2--2--2-2-6-5-6-5--5--5--5--5-5---------
        PM     . .             .     . .
                                     end riff2
-------------------------------------------------|
-------------------------------------------------|
-------------------------------------------------|
---4--4--4--4--4-4-8-7-8-7--7--7--7--7-7-7-6-7-6-|
---4--4--4--4--4-4-8-7-8-7--7--7--7--7-7-5-4-5-4-|
---2--2--2--2--2-2-6-5-6-5--5--5--5--5-5---------|
        PM     . .             .     . .
   riff3
-|---------------------------|
-|---------------------------|
-|-6----6-4-4----6-2-2-4-1-1-|
-|-4-------------------------|
-|-4-------------------------|
-|-2-------------------------|

   riff4
-|-------------------------------------------------
-|-------------------------------------------------
-|-------------------------------------------------
-|-4------4--------------------7------777777666666-
-|-4-4444-4-4444----444-5-5555---5555--------------
-|-2-2222-2-2222-222-------------------------------
     PM..   .... ...
                                    end riff4
--------------------------------------------------|
--------------------------------------------------|
--------------------------------------------------|
---4------4--------------------7------7-9-7-7-6-7-|
---4-4444-4-4444----444-5-5555---5555-------------|
---2-2222-2-2222-222------------------------------|
     PM..   .... ...
   riff5
-|------------------------------------------------
-|------------------------------------------------
-|------------------------------------------------
-|-4------4-7-8-7-6-7-7-7777-7-7777-6-6666-5-5555-
-|-4-4444-4-7-8-7-6-7-5-5555-5-5555-4-4444-3-3333-
-|-2-2222-2-5-6-5-4-5-----------------------------
     PM..
                                 end riff5
--------------------------------------------------|
--------------------------------------------------|
--------------------------------------------------|
---4------4-7-8-7-6-7-6-6666-6-6666-5-5555-4-4444-|
---4-4444-4-7-8-7-6-7-4-4444-4-4444-3-3333-2-2222-|
---2-2222-2-5-6-5-4-5-----------------------------|
     PM..
   riff6
-|-------------------------------------------|
-|-------------------------------------------|
-|-------------------------------------------|
-|-7----6----4--------7----6----4----2--2----|
-|-5----4----2--------5----4----2----0--0----|
-|-------------------------------------------|
   SORRY NO SOLO YET.IT IS SIMPLE THOUGH AND I WILL POST IT SOON.
riff1 x 4
riff2 x 2
riff3 x 4 with bass playing riff1 x 2
riff4 x 2
riff5 x 2
riff4 x 2
riff5 x 2
riff6 x 6 add solo after playing x2
end
Добавлено: 07.04.2012
Другие материалы по этой песне:
  • Аккорды и текст

Страница создана 07.04.2012
http://primanota.ru/bethlehem/veiled-irreligion-chords.htm
Привет, Гость.
Предлагаем пройти революционный курс по гитаре.
Подарок от PrimaNota.Ru, забирай!