PrimaNota.ru - самый крупный в мире бесплатный архив песенных текстов, аккордов, табулатур и нот


Bethlehem - Schatten Aus Der Alexander Welt - текст песни, таба, видео

Регистрация Запомнить меня
Войти через:  Facebook Google Twitter Vk Yandex Mail.ru

Bethlehem - Schatten Aus Der Alexander Welt - текст песни, таба, видео

Печатать
Просмотров: 195
Artist: Bethlehem
Title: Schatten aus der Alexander Welt
Album: Dictius Te Necare (1996)
Label: Red Stream Records

Tabbed by Goad.
If you have any suggestions or whatever, just leave a comment.

4/4 Time - Standard Tuning - 4 minutes and 25 seconds
Music & Lyrics by Bartsch / November 1994

LISTEN TO THE SONG FOR TIMING.


RIFF 1 - distorted guitar / tremolo these notes - 0:00 to 0:27
e|------------|----------|------------|---------| R
B|------------|----------|------------|---------| E
G|------------|----------|------------|---------| P  FOUR
D|------------|----------|------------|---------| E  TIMES
A|-0---5------|----4-5-4-|-1----------|-4----5--| A
E|------------|----------|------------|---------| T


RIFF 2A - clean guitar - 0:28 to 1:00
e|------------|----------|------------|---------| R
B|------------|----------|------------|---------| E
G|------------|----------|------------|---------| P  FOUR
D|-7-7--------|----8-7-8-|------------|-6-------| E  TIMES
A|-----5------|----------|-8----------|---------| A
E|------------|----------|------------|---------| T

RIFF 2B - clean guitar - 1:01 to 1:16
e|------------|----------|------------|---------| R
B|------------|----------|------------|---------| E
G|------------|----------|------------|---------| P  TWO
D|-7-7----7-7-|----8-7-8-|----8-7-8---|----6----| E  TIMES
A|-----5------|-5--------|-8--------8-|---------| A
E|------------|----------|------------|---------| T


RIFF 3A - distorted guitar / tremolo these notes - 1:17 to 1:30
e|------------|-------------|------------|-------------| R
B|------------|-------------|------------|-------------| E
G|------------|-------------|------------|-------------| P  TWO
D|------------|-------------|------------|-------------| E  TIMES
A|-0--1--0----|-------------|-0--1--0----|-------------| A
E|----------4-|-5/--1--0--1-|----------4-|-5/--1--0--1-| T

RIFF 3B - distorted guitar / tremolo these notes - 1:31 to 1:58
 ** the 1st time you play this part, it has more of a rhythm rather than just tremolo
e|----------|----------|----------|-------------| R
B|----------|----------|----------|-------------| E
G|----------|----------|----------|-------------| P  FOUR
D|----------|----------|----------|-------------| E  TIMES
A|----------|----------|----------|-------------| A
E|-0--------|-6--5-----|-6--5-----|-6--5---7--7-| T

** Repeat all of RIFF 3 (both 3A and 3B) one more time - 1:59 to 2:40

** Repeat RIFF 1 two times - 2:41 to 2:53


RIFF 4 - distorted guitar / tremolo these notes - 2:54 to 3:07
e|---------|--------------|----------|----------| R
B|---------|--------------|----------|----------| E
G|---------|--------------|----------|----------| P  TWO
D|---------|--------------|----------|----------| E  TIMES
A|---------|-------5--6-5-|-1--------|-4--------| A
E|-4--5----|-4--5---------|----------|----------| T

** Repeat RIFF 1 two times - 3:08 to 3:21


RIFF 2A - clean guitar - 3:22 to 3:54
e|------------|----------|------------|---------| R
B|------------|----------|------------|---------| E
G|------------|----------|------------|---------| P  FOUR
D|-7-7--------|----8-7-8-|------------|-6-------| E  TIMES
A|-----5------|----------|-8----------|---------| A
E|------------|----------|------------|---------| T

RIFF 2B - clean guitar - 3:55 to 4:10
e|------------|----------|------------|---------| R
B|------------|----------|------------|---------| E
G|------------|----------|------------|---------| P  TWO
D|-7-7----7-7-|----8-7-8-|----8-7-8---|----6----| E  TIMES
A|-----5------|-5--------|-8--------8-|---------| A
E|------------|----------|------------|---------| T

RIFF 2B¹ - 4:11 to 4:16
e|------------|----------|
B|------------|----------|
G|------------|----------|  T H E
D|-7-7----7-7-|----------|  E N D !
A|-----5------|-5--------|
E|------------|----------|
Добавлено: 04.03.2012
Другие материалы по этой песне:

Страница создана 04.03.2012
http://primanota.ru/bethlehem/schatten-aus-der-alexander-welt-chords.htm
Привет, Гость.
Предлагаем пройти революционный курс по гитаре.
Подарок от PrimaNota.Ru, забирай!