PrimaNota.ru - самый крупный в мире бесплатный архив песенных текстов, аккордов, табулатур и нот


Bethel Music - You Are Good - таба, бас-таба, видео

Регистрация Запомнить меня
Войти через:  Facebook Google Twitter Vk Yandex Mail.ru

Bethel Music - You Are Good - таба, бас-таба, видео

Печатать
Просмотров: 288
Уроки эстрадного вокала в Санкт-Петербурге
-------------------------------------------------------------------------------
                             YOU ARE GOOD - Bethel Music
-------------------------------------------------------------------------------
Tabbed by:Tom Cox       
E-mail:

Tuning: Standard

Intro/Instrumental 

e|------------------------------------12-12-12-14-14-14---------------------|
B|---14-14-14-14-14-14-14-14-12-12-12---------------------------------------|
G|------------------------------------------------------11-11-11-11-11-11-11|
D|--------------------------------------------------------------------------|
A|--------------------------------------------------------------------------|
E|--------------------------------------------------------------------------|

e|----------12-12-12|
B|------------------|
G|-14-14-14---------|
D|------------------|
A|------------------|
E|------------------|

e|----------------------------------12-12-12-14-14-14------------------------|
B|-14-14-14-14-14-14-14-14-12-12-12------------------------------------------|
G|----------------------------------------------------11-11-11-11-11-11-11-14|
D|---------------------------------------------------------------------------|
A|---------------------------------------------------------------------------|
E|---------------------------------------------------------------------------|


Bridge
e|---14-------------12-------------------------------------------------------|
B|--------15-------------15---------14---14---12-----14---14-----------------|
G|------------14--------------14-------------------------------13------------|
D|---------------------------------------------------------------------------|
A|---------------------------------------------------------------------------|
E|---------------------------------------------------------------------------|

e|---14-------------12-------------------------------------------------------|
B|--------15-------------15---------14---14---12-----14---14---17------------|
G|------------14--------------14---------------------------------------------|
D|---------------------------------------------------------------------------|
A|---------------------------------------------------------------------------|
E|---------------------------------------------------------------------------|



************************************

| /   slide up
| \   slide down
| h   hammer-on
| p   pull-off
| ~   vibrato
| +   harmonic
| x   Mute note
| b   Bend
| pb  Pre-bend
| br  Bend release
| pbr Pre-bend release
| brb Bend release bend

************************************
Добавлено: 13.02.2016
Другие материалы по этой песне:
  • Аккорды и текст

Страница создана 25.10.2014
http://primanota.ru/bethel-music/you-are-good-chords.htm
Привет, Гость.
Предлагаем пройти революционный курс по гитаре.
Подарок от PrimaNota.Ru, забирай!