PrimaNota.ru - самый крупный в мире бесплатный архив песенных текстов, аккордов, табулатур и нот


Bethel Live - Ever Be - таба, видео

Регистрация Запомнить меня
Войти через:  Facebook Google Twitter Vk Yandex Mail.ru

Bethel Live - Ever Be - таба, видео

Печатать
Просмотров: 233
Уроки эстрадного вокала в Санкт-Петербурге
Ever Be (live)
Bethel Church
Artist: Kalley Heiligenthal
Tempo = 70
Standard tuning

Intro
E |----5------5------5--------5-----|----5------5------5--------5-----|----5------5------5--------5-----|
B |-----7------7-------7-------7----|-----7------7-------7-------7----|-----5------5-------5-------5----|
G |--7-------7------7-------7-------|--6-------6------6-------6-------|--6-------6------6-------6-------|
D |---------------------------------|---------------------------------|---------------------------------|
A |---------------------------------|---------------------------------|---------------------------------|
E |---------------------------------|---------------------------------|---------------------------------|

|----5------5------5--------5-----|
|-----7------7-------7-------7----|
|--7-------7------7-------7-------|
|---------------------------------|
|---------------------------------|
|---------------------------------|

Pre-chorus
|-------|-------|-------|--3----|
|--8----|--7----|--10---|--5----|
|--7----|--7----|--9----|--4----|
|--5----|--5----|--7----|-------|
|-------|-------|-------|-------|
|-------|-------|-------|-------|

Chorus
|-------|-------|-------|------|------|-------|------|------|
|--8----|--7----|--7----|--5---|--8---|--7----|--7---|--8---|
|--7----|--7----|--7----|--6---|--7---|--7----|--7---|--7---|
|--5----|--5----|--0----|--7---|--5---|--5----|--0---|--5---|
|-------|-------|-------|------|------|-------|------|------|
|-------|-------|--7----|------|------|-------|--7---|------|

Chorus 2 X2
|--10--------10-----------------12--|--10--------10-----------------12--|--10--------------12--|
|------12--------12----10--12-------|------12--------12----10--12-------|-----12-10-12---------|
|----12--------12-------------------|----11--------11-------------------|---------------11-----|
|-----------------------------------|-----------------------------------|----------------------|
|-----------------------------------|-----------------------------------|----------------------|
|-----------------------------------|-----------------------------------|----------------------|

|--9--------9-----------|
|----10-----------12----|
|-------11--------------|
|-----------------------|
|-----------------------|
|-----------------------|

Bridge
|----5------5------5--------5-----|     |----5------5------5--------5-----|
|-----7------7-------7-------7----|     |-----8------8-------8-------8----|
|--7-------7------7-------7-------| X3  |--7-------7------7-------7-------|
|---------------------------------|     |---------------------------------|
|---------------------------------|     |---------------------------------|
|---------------------------------|     |---------------------------------|

Chorus 2 X4

Добавлено: 15.11.2015
Другие материалы по этой песне:

Страница создана 15.11.2015
http://primanota.ru/bethel-live/ever-be-chords.htm
Привет, Гость.
Предлагаем пройти революционный курс по гитаре.
Подарок от PrimaNota.Ru, забирай!