PrimaNota.ru - самый крупный в мире бесплатный архив песенных текстов, аккордов, табулатур и нот


Beth Orton - Pedestal - аккорды и текст, таба, видео

Регистрация Запомнить меня
Войти через:  Facebook Google Twitter Vk Yandex Mail.ru

Beth Orton - Pedestal - аккорды и текст, таба, видео

Печатать
Просмотров: 213
Уроки эстрадного вокала в Санкт-Петербурге
Pedestal
Beth Orton
/o/Orton_Beth/Pedestal.tab


>From the other side of the Touch Me With Your Love single.

Play it with a capo at the second fret (in A) to be in key with the CD.

[verse and chorus]:

      G           (C)            D           D
e-||--------------|-------3----|-----2------|---2--------|-
B-||-------3------|---------3--|-----3--3---|--(3)3---3--|-
G-||---------0----|------------|----------2-|-------2----|-
D-||:-------------|------------|------------|------------|-
A-||-----------0h2p0-----------|-0----------|------------|-
E-||--3-----------|------------|------------|------------|-

      G           (C)            D           D
e ----------------|-------3----|-----2------|------------||-
B ---------3------|---------3--|-----3--3---|---3--------||-
G -----------0----|------------|----------2-|---2-2---2--||-
D ----------------|------------|------------|-------0---:||-
A -------------0h2p0-----------|-0----------|------------||-
E ----3-----------|------------|------------|------------||-


 G       C       D              G          C       D
   been ..
   no ..
coz .
 ever  ..

h is hammer-on
p is pull-off



Nic

Nic.Boulton@bn.cwplc.com



     
Добавлено: 23.08.2013
Другие материалы по этой песне:
  • Аккорды и текст

Страница создана 08.03.2012
http://primanota.ru/beth-orton/pedestal-chords.htm
Привет, Гость.
Предлагаем пройти революционный курс по гитаре.
Подарок от PrimaNota.Ru, забирай!