PrimaNota.ru - самый крупный в мире бесплатный архив песенных текстов, аккордов, табулатур и нот


Beta Band - I Know - текст песни, таба, бас-таба, видео

Регистрация Запомнить меня
Войти через:  Facebook Google Twitter Vk Yandex Mail.ru

Beta Band - I Know - текст песни, таба, бас-таба, видео

Печатать
Просмотров: 200
Author/Artist: Beta Band
Title: I Know
Album: The Three EPs
Transcribed by: Mark Paré
Email: mpare@haverford.edu

------------------------------------------------------------------------------|
------------------------------------------------------------------------------|
------------------------------------------------------------------------------|
----4--1-2-1-----4--1-2-1-----------------------------------------------------|
------------------------------------------------------------------------------|
-2------------2---------------------------------------------------------------|
 This is the bassline.  There are some very slight variations throughout.

-2----5-4-2-------------------------------------------------------------------|
-2----------------------------------------------------------------------------|
-3----------------------------------------------------------------------------|
-4----------------------------------------------------------------------------|
-4----------------------------------------------------------------------------|
-2----------------------------------------------------------------------------|
 This is the F# played throughout, and the short riff that opens.

-14---------------------------------------------------------------------------|
------------------------------------------------------------------------------|
------------------------------------------------------------------------------|
------------------------------------------------------------------------------|
------------------------------------------------------------------------------|
------------------------------------------------------------------------------|
 And the repeated single note.

-17-16---|--------------------------------------------------------------------|
---------|--------------------------------------------------------------------|
---------|----------15--------------------------------------------------------|
-------16|-------14-----------------------------------------------------------|
---------|-14-16--------------------------------------------------------------|
---------|--------------------------------------------------------------------|
 Opening riff higher on neck.  Listen at 1:45 for lick shown at right.

---------|---------------|-------------|--------------------------|-----------|
---------|---------------|-------------|--------------------------|-----------|
-16-14---|-------14------|-16b17r16-14\|-b17r16-14v\---b17r16-14v\|-----------|
-------16|-14h16----16-14|-------------|--------------------------|-14-14h16--|
---------|---------------|-------------|--------------------------|-----------|
---------|---------------|-------------|--------------------------|-----------|
 The rest of the song is essentially the stuff shown above, and then these

-----------|-------------|-------------------------------------|--------------|
-----------|-------------|-------------------------------------|--------------|
----14-----|-------------|------------------------------b17r16\|----14-14-----|
-16----16v\|-------14----|-------14------------14--------------|-16-------16--|
-----------|-14h16----16\|-14h16----16\--14h16----16\----------|--------------|
-----------|-------------|-------------------------------------|--------------|
 assorted licks.  Just listen for timing and rhythm.

----|-------------------|-----------------------------------------------------|
----|-------------------|-----------------------------------------------------|
----|-------------------|-----------------------------------------------------|
-16\|-------14h16-14-14\|-----------------------------------------------------|
----|-14h16-------------|-----------------------------------------------------|
----|-------------------|-----------------------------------------------------|


-17-17-17-17-17-17-17|-17-14---------------------|----------------------------|
---------------------|-------17-14---14-14-14-14\|----------------------------|
---------------------|---------------------------|-------14-------------------|
---------------------|---------------------------|-14h16----------------------|
---------------------|---------------------------|------------14-14-14h16-----|
---------------------|---------------------------|----------------------------|


----|-------------------------------------------------------------------------|
----|-------------------------------------------------------------------------|
----|-------------------------------------------------------------------------|
----|-------------------------------------------------------------------------|
-16\|-------------------------------------------------------------------------|
----|-------------------------------------------------------------------------|
Добавлено: 09.07.2012
Другие материалы по этой песне:
  • Аккорды и текст

Страница создана 20.04.2012
http://primanota.ru/beta-band/i-know-chords.htm
Привет, Гость.
Предлагаем пройти революционный курс по гитаре.
Подарок от PrimaNota.Ru, забирай!