PrimaNota.ru - самый крупный в мире бесплатный архив песенных текстов, аккордов, табулатур и нот


Bestial Soul - Perpetual Darkness - бас-таба, видео

Регистрация Запомнить меня
Войти через:  Facebook Google Twitter Vk Yandex Mail.ru

Bestial Soul - Perpetual Darkness - бас-таба, видео

Печатать
Просмотров: 173
Уроки эстрадного вокала в Санкт-Петербурге
Bestial Soul - Perpetual Darkness

Bass Tab wrote by Gwenaël Pigat
Played entirely with fingers

Tuning : D-G-C-F

Hope you'll like it ! ;)



  t     = Two-handed tapping
  h     = hammer-on
/ or \  = Slide


F|---------------------------------------------------------------|
C|----------------7-5h7h5h7h5h7h5h7h5----------------------------|
G|-12\5~-6~-5~-6~-5------------------6~-5-5-5/161616-17-16-17-19-|
D|---------------------------------------------------------------|

F|---------------------------------------------------------------|
C|---------------------------------------------------------------|
G|-17-16\-5-555-5\2/6-66-6h8h6---5-555-2-3-6-66-8h10h8-6h8-------|
D|-----------------------------8---------------------------------|

F|---------------------------------------------------------------|
C|---------------------------------------------------------------|
G|-5-555-5\2/6-66-6h8h6---5-555-2-3-6-66-8h10h8-6h8--------------|
D|----------------------8----------------------------------------|

F|---------------------------------------------------------------|
C|-12--12---777777~--12-10-9-7-8-7-5~---12-10-9-777777~----------|
G|-10--10---555555~--10--8-7-5-6-5-3~---10--8-7-555555~----------|
D|---------------------------------------------------------------|


"""""""""""""""""""""""""""""""""""""""""""""""""""""""""""""""""
F|---------------------------------------------------------------|
C|---------------------7-8-7-5-----------------777777~-----------|   X2
G|------10-00-8-00-7-0-5-6-5-3--10-00-8-00-7-0-555555~-----------|
D|---------------------------------------------------------------|
"""""""""""""""""""""""""""""""""""""""""""""""""""""""""""""""""


>Chorus

F|---------------------------------------------------------------|
C|---------------------------------------------------------------|
G|0-000000-2-222222-3-333333-5-555555-0-000000-2-222222-3-333333-|
D|---------------------------------------------------------------|

F|---------------------------------------------------------------|
C|---------------------------------------------------------------|
G|-5-55-555/12-1212-14-12-11--14-1414-17-1414--15-1515-17-15-14--|
D|---------------------------------------------------------------|

F|---------------------------------------------------------------|
C|-----------------------12h13h12h13h12h13h12h13h12--------------|
G|-17-1715b-15b--12-1213----------------------------1314-1415----|
D|---------------------------------------------------------------|

F|---------------------------------------------------------------|
C|-14h15h14h15h14h15h14h15h14---------15h17h15h17h15h17h15h17h15-|
G|---------------------------1515-1517---------------------------|
D|---------------------------------------------------------------|

F|---------------------------------------------------------------|
C|-----------17h19h17h----12~10~9~7~8~7~5~--12-10-9-777777~------|
G|-1717-1719-----------19\10~-8~7~5~6~5~3~--10--8-7-555555~------|
D|---------------------------------------------------------------|



>Main riff

"""""""""""""""""""""""""""""""""""""""""""""""""""""""""""""""""
F|---------------------------------------------------------------|
C|---------------------7-8-7-5-----------------777777~-----------|   X2
G|------10-00-8-00-7-0-5-6-5-3--10-00-8-00-7-0-555555~-----------|
D|---------------------------------------------------------------|
"""""""""""""""""""""""""""""""""""""""""""""""""""""""""""""""""



>Chorus

F|---------------------------------------------------------------|
C|---------------2-2h3h2h3h2------3-2------2-3------7-5----------|
G|---------0-00--------------2-22-----3-33-----5-55--------------|
D|---------------------------------------------------------------|

F|---------------------------------------------------------------|
C|------2-2h3h2h3h2------3-2------2-3-----77---------------------|
G|-0-00-------------2-22-----3-33-----5-5-55---------------------|
D|---------------------------------------------------------------|

F|---------------------------------------------------------------|
C|---------------------------------------------------------------|
G|------12-1212-14-12-11--14-1414-17-1414--15-1515-17-15-14------|
D|---------------------------------------------------------------|

F|---------------------------------------------------------------|
C|-----------------------12h13h12h13h12h13h12h13h12--------------|
G|-17-1715b-15b--12-1213----------------------------1314-1415----|
D|---------------------------------------------------------------|

F|---------------------------------------------------------------|
C|-14h15h14h15h14h15h14h15h14---------15h17h15h17h15h17h15h17h15-|
G|---------------------------1515-1517---------------------------|
D|---------------------------------------------------------------|

F|---------------------------------------------------------------|
C|-----------17h19h17h19h17h19h17h19h17--------------------------|
G|-1717-1719----------------------------19-----------------------|
D|---------------------------------------------------------------|

F|---------------------------------------------------------------|
C|------2-------4---4--------5------7--7----------2------4--4----|
G|-0-00---00--2---2--22-3-33--33--5--5--55---0-00--00--2--2---22-|
D|---------------------------------------------------------------|

F|---------------------------5---------7-------------------------|
C|---------------------------------------------------------------|
G|------------------------3----3----5----5-----------------------|
D|---------------------------------------------------------------|
                             S         S


"""""""""""""""""""""""""""""""""""""""""""""""""""""""""""""""""
F|---2-----2-----2--------4-----4-----4--------5-----5-----5-----|
C|-----2-----2-----2--------4-----4-----4--------5-----5-----5---|
G|-0-----0-----0-----0--2-----2-----2-----2--3-----3-----3-----3-|
D|---------------------------------------------------------------|
                                                                        X2

F|---7-----7-----7-----------------------------------------------|
C|-----7-----7-----7---------------------------------------------|
G|-5-----5-----5-----5-------------------------------------------|
D|---------------------------------------------------------------|
"""""""""""""""""""""""""""""""""""""""""""""""""""""""""""""""""


>Chorus - secondary part

"""""""""""""""""""""""""""""""""""""""""""""""""""""""""""""""""
F|---------------------------------------------------------------|
C|-77-777777-99-999999-1010-10101010101010--1212-12121212121212--|      X2
G|-55-555555-77-777777--8-8--8-8-8-8-8-8-8--1010-10101010101010--|
D|---------------------------------------------------------------|
"""""""""""""""""""""""""""""""""""""""""""""""""""""""""""""""""



>Bridge

F|-12~------------12-------12-------12-------12-------12---------|
C|-12~---------12-------12-------12-------12-------12----12------|
G|-10~------10-------10-------10-------10-------10---------------|
D|---------------------------------------------------------------|

F|-------13-------13-------13-------10-------10------------------|
C|----10-------10-------10-------10-------10----10---------------|
G|-11-------11-------11-------11-------11------------------------|
D|---------------------------------------------------------------|


"""""""""""""""""""""""""""""""""""""""""""""""""""""""""""""""""
F|-------12-------12-------12-------12-------12------------------|
C|----12-------12-------12-------12-------12----12---------------|
G|-10-------10-------10-------10-------10------------------------|
D|---------------------------------------------------------------|
                                                                        X2
F|-------13-------13-------13-------10-------10------------------|
C|----10-------10-------10-------10-------10----10---------------|
G|-11-------11-------11-------11-------11------------------------|
D|---------------------------------------------------------------|
"""""""""""""""""""""""""""""""""""""""""""""""""""""""""""""""""



F|-------12-------12-------12-------12-------12------------------|
C|----12-------12-------12-------12-------12----12---------------|
G|-10-------10-------10-------10-------10------------------------|
D|---------------------------------------------------------------|
                                                                
F|-------13-------13-------13-------10~--------------------------|
C|----10-------10-------10-------10------------------------------|
G|-11-------11-------11-------11---------------------------------|
D|---------------------------------------------------------------|



"""""""""""""""""""""""""""""""""""""""""""""""""""""""""""""""""
F|---------t12---------t12-----------------t12---------t12-------|
C|-----t12---------t12---------t12-----t12---------t12-----------|
G|-t10---------t10---------t10-----t10---------t10---------------|
D|---------------------------------------------------------------|

F|---------t12--------------t13---------t13-----------------t10--|
C|-----t12-----t12------t10---------t10---------t10-----t10------|      X2
G|-t10--------------t11---------t11---------t11-----t11----------|
D|---------------------------------------------------------------|

F|---------t10---------t10---------------------------------------|
C|-----t10---------t10-----t10-----------------------------------|
G|-t11---------t11-----------------------------------------------|
D|---------------------------------------------------------------|
"""""""""""""""""""""""""""""""""""""""""""""""""""""""""""""""""



F|-------t12-------t12------t12------t12------t12------t12-------|
C|----t12------t12-------t12------t12------t12------t12----------|
G|-t10------t10-------t10------t10------t10------t10-------------|
D|---------------------------------------------------------------|

F|-------t12------t12------t13------t13------t13------t13--------|
C|----t12------t12------t10------t10------t10------t10-----------|
G|-t10------t10------t11------t11------t11------t11--------------|
D|---------------------------------------------------------------|

F|-------t10------t10------t10------t10--------------------------|
C|----t10------t10------t10------t10-----------------------------|
G|-t11------t11------t11------t11--------------------------------|
D|---------------------------------------------------------------|

F|-------t12-------t12------t12------t12------t12------t12-------|
C|----t12------t12-------t12------t12------t12------t12----------|
G|-t10------t10-------t10------t10------t10------t10-------------|
D|---------------------------------------------------------------|

F|-------t12------t12------t13------t13------t13------t13--------|
C|----t12------t12------t10------t10------t10------t10-----------|
G|-t10------t10------t11------t11------t11------t11--------------|
D|---------------------------------------------------------------|

F|-------t10---------------10------------------------------------|
C|----t10----t10--------------10---------12--------12--------12--|
G|-t11-----------10\0/11-8-------8--1010----101010----101010-----|
D|---------------------------------------------------------------|


F|--------------------------------11h13h11h13h11h13h11-----------|
C|---------------12---------11h13----------------------13--------|
G|--------101010----1011h13--------------------------------------|
D|---------------------------------------------------------------|

F|-----------8h10h8h10h8h10h8------------------------------------|
C|------8h10------------------10---------------------------------|
G|-8h10----------------------------------------------------------|
D|---------------------------------------------------------------|



>Bridge's end - start solo riff

F|---------------------------------------------------------------|
C|------12--------12--------12--------12--------13--------13-----|
G|-10-10--10-10-10--10-10-10--10-10-10--10-11-11--11-11-11-------|
D|---------------------------------------------------------------|

F|---------------------------------------------------------------|
C|------------10---10-------12--------12--------12--------12-----|
G|-------11-88--888--8-10-10--10-10-10--10-10-10--10-10-10-------|
D|---------------------------------------------------------------|

F|---13-------13----------10------10-----------------------------|
C|------13-------13----------10------10--------------------------|
G|-11------11-------11--8-------8-------8------------------------|
D|---------------------------------------------------------------|

F|---------------------------------------------------------------|
C|------12--------12--------12--------12--------13--------13-----|
G|-10-10--10-10-10--10-10-10--10-10-10--10-11-11--11-11-11-------|
D|---------------------------------------------------------------|

F|---------------------------------------------------------------|
C|------------10---10-------12--------12--------12--------12-----|
G|-------11-88--888--8-10-10--10-10-10--10-10-10--10-10-10-------|
D|---------------------------------------------------------------|

F|-------------------------11h13h11h13h11h13h11------------------|
C|-------------------11h13----------------------13---------------|
G|--------10-1011h13---------------------------------------------|
D|---------------------------------------------------------------|

F|-----------8h10h8h10h8h10h8------------------------------------|
C|------8h10------------------10---------------------------------|
G|-8h10----------------------------------------------------------|
D|---------------------------------------------------------------|

F|---------------------------------------------------------------|
C|------12--------12--------12--------12--------13--------13-----|
G|-10-10--10-10-10--10-10-10--10-10-10--10-11-11--11-11-11-------|
D|---------------------------------------------------------------|

F|---------------------------------------------------------------|
C|------------10---10-------12--------12--------12--------12-----|
G|-------11-88--888--8-10-10--10-10-10--10-10-10--10-10-10-------|
D|---------------------------------------------------------------|

F|------------------------------t14----- t14------t14------t14---|
C|-13-13-13-13-10-10-10------t12------t12------t12------t12------|
G|-11-11-11-11--8--8--8---t10------t10------t10------t10---------|
D|---------------------------------------------------------------|

F|-------t14------t14------t14------t14------t15------t15--------|
C|----t12------t12------t12------t12------t13------t13-----------|
G|-t10------t10------t10------t10------t11------t11--------------|
D|---------------------------------------------------------------|

F|-------t15------t15------t12------t12-----t12-------t12--------|
C|----t13------t13------t10------t10------t10------t10-----------|
G|-t11------t11------t8-------t8-------t8-------t8---------------|
D|---------------------------------------------------------------|

F|-------t14------t14------t14------t14------t14------t14--------|
C|----t12------t12------t12------t12------t12------t12-----------|
G|-t10------t10------t10------t10------t10------t10--------------|
D|---------------------------------------------------------------|

F|-------t14------t14------t15------t15------t15------t15--------|
C|----t12------t12------t13------t13------t13------t13-----------|
G|-t10------t10------t11------t11------t11------t11--------------|
D|---------------------------------------------------------------|

F|--------t12----------------------------------------------------|
C|----t10-----t10--12~10~9~7~8~7~5~12~-10~-9~777777~-------------|
G|--t8-------------10~-8~7~5~6~5~3~10~--8~-7~555555~-------------|
D|---------------------------------------------------------------|

F|---------------------------------------------------------------|
C|-12-10-9-7-8-7-5--12-10-9-777777~------------------------------|
G|-10--8-7-5-6-5-3--10--8-7-555555~------------------------------|
D|---------------------------------------------------------------|


>Main riff

"""""""""""""""""""""""""""""""""""""""""""""""""""""""""""""""""
F|---------------------------------------------------------------|
C|---------------------7-8-7-5-----------------777777~-----------|   X2
G|------10-00-8-00-7-0-5-6-5-3--10-00-8-00-7-0-555555~-----------|
D|---------------------------------------------------------------|
"""""""""""""""""""""""""""""""""""""""""""""""""""""""""""""""""


>Chorus

F|---------------------------------------------------------------|
C|---------------2-2h3h2h3h2------3-2------2-3------7-5----------|
G|---------0-00--------------2-22-----3-33-----5-55--------------|
D|---------------------------------------------------------------|

F|---------------------------------------------------------------|
C|------2-2h3h2h3h2------3-2------2-3-----77---------------------|
G|-0-00-------------2-22-----3-33-----5-5-55---------------------|
D|---------------------------------------------------------------|

F|---------------------------------------------------------------|
C|---------------------------------------------------------------|
G|------12-1212-14-12-11--14-1414-17-1414--15-1515-17-15-14------|
D|---------------------------------------------------------------|

F|--------------------------12h13h12h13h12h13h12-----------------|
C|--------------------12h13h--------------------13-----14h15-----|
G|-17-1715b-15b--12h13----------------------------14h15----------|
D|---------------------------------------------------------------|

F|-14h15h14h15h14h15h14--------------15h17h15h17h15h17h15--------|
C|---------------------15-------15h17--------------------17------|
G|------------------------15h17----------------------------------|
D|---------------------------------------------------------------|

F|-----------17h19h17h19h17h19h17--------------------------------|
C|------17h19--------------------19\-----------------------------|
G|-17h19---------------------------------------------------------|
D|---------------------------------------------------------------|

F|---------------------------------------------------------------|
C|------2-------4---4--------5------7--7----------2------4--4----|
G|-0-00---00--2---2--22-3-33--33--5--5--55---0-00--00--2--2---22-|
D|---------------------------------------------------------------|

F|---------------------------5---------7-------------------------|
C|---------------------------------------------------------------|
G|------------------------3----3----5----5-----------------------|
D|---------------------------------------------------------------|
                             S         S


F|---2-----2-----2--------4-----4-----4--------5-----5-----5-----|
C|-----2-----2-----2--------4-----4-----4--------5-----5-----5---|
G|-0-----0-----0-----0--2-----2-----2-----2--3-----3-----3-----3-|
D|---------------------------------------------------------------|

F|---7-----7-----7-----------------------------------------------|
C|-----7-----7-----7---------------------------------------------|
G|-5-----5-----5-----5-------------------------------------------|
D|---------------------------------------------------------------|

F|--------t16------t16------t16------t16------t18------t18-------|
C|----t14-------t14------t14------t14------t16------t16----------|
G|-t12-------t12------t12------t12------t14------t14-------------|
D|---------------------------------------------------------------|

F|-------t18------t18------t19------t19------t19------t19--------|
C|----t16------t16------t17------t17------t17------t17-----------|
G|-t14------t14------t15------t15------t15------t15--------------|
D|---------------------------------------------------------------|

F|-------t21------t21------t21------t21--------------------------|
C|----t19------t19------t19------t19-----------------------------|
G|-t17------t17------t17------t17------t17~----------------------|
D|---------------------------------------------------------------|

End
Добавлено: 15.08.2015
Другие материалы по этой песне:
  • Аккорды и текст

Страница создана 15.08.2015
http://primanota.ru/bestial-soul/perpetual-darkness-chords.htm
Привет, Гость.
Предлагаем пройти революционный курс по гитаре.
Подарок от PrimaNota.Ru, забирай!