PrimaNota.ru - самый крупный в мире бесплатный архив песенных текстов, аккордов, табулатур и нот


Best Interest - Magic Sticks In Becember - таба, видео

Регистрация Запомнить меня
Войти через:  Facebook Google Twitter Vk Yandex Mail.ru

Best Interest - Magic Sticks In Becember - таба, видео

Печатать
Просмотров: 109
-----------------------------------------------------------------------------------------
Best Interest – Magic Sticks In December
-----------------------------------------------------------------------------------------
By Jake S (jake--@hotmail.com)
Tuning: Standard                
Pm: Palm Mute
****: Get Louder
///: Slide Up
Tuning: Standard

This is my first tab. I think it is in drop d because when Guitar 1 play the flange bit
in the bridge, I think he goes down to low E flat so I know this tab wont be 100% cos
its a hard song, but here's the basic and you can figure the rest out. Corrections
Welcome (Corrections Needed)!

Intro:
Guitar 1: (Clean)
E---------------4-------|
B-2-------------4-------|
G-1-------------6-------|
D-3-X8---6-X8---6-X16---| X2
A-1------4------4-------|
E--------2--------------|

Guitar 2:
E--------16----------16-|
B-----------14-------14-|
G--------------13----13-|
D-----------------------| x2
A-----------------------|
E-----------------------|

Intro Part 2 (Drums In):
Guitar 1:
E--------------------------------------|--------------------------------------|
B---------22----44---------------------|---------22----44---------------------|
G------------11----11-66-66-6----------|------------11----11-66-66-6----------|
D-88-88-8-------------66-66-6---66-6-6-|-44-44-4-------------66-66-6---66-6-7-|
A-88-88-8-------------44-44-4---66-6-6-|-44-44-4-------------44-44-4---66-6-7-|
E-66-66-6-----------------------44-4-4-|-22-22-2-----------------------44-4-5-|

E--------------------------------------|--------------------------------------|
B---------22----44---------------------|---------22----44---------------------|
G------------11----11-66-66-6----------|------------11----11-66-66-6----------|
D-88-88-8-------------66-66-6---66-6-6-|-44-44-4-------------66-66-6---66-6-6-|
A-88-88-8-------------44-44-4---66-6-6-|-44-44-4-------------44-44-4---66-6-6-|
E-66-66-6-----------------------44-4-4-|-22-22-2-----------------------44-4-4-|

Guitar 2:
E-----1-2-1-------|-11----44----|-----1-2-1-------1-2-1-------1-2-|
B-2-4-------4-2-4-|----22----22-|-2-4-------4-2-4-------4-2-4-----|
G-----------------|-------------|---------------------------------|
D-----------------|-------------|---------------------------------| x4
A-----------------|-------------|---------------------------------|
E-----------------|-------------|---------------------------------|

Verse:
Guitar 1:
E-------------------------------|-------------------------------|
B-------------------------------|-------------------------------|
G-------------------------------|-6666666666-----------88888888-|
D-4-Ring-Out----------3333-5555-|-------------------------------|
A-4-------------------1111-3333-|-------------------------------|
E-2-----------------------------|-------------------------------|
                                                       Pm  ****
Guitar 2:
E------------------|-16----16----16---16----16----16---16----16----16---16----16----16---|
B-2-1h2p1h2-repeat-|---14----14----14---14----14----14---14----14----14---14----14----14-|
G------------------|-----13----13---------13----13---------13----13---------13----13-----|
D------------------|---------------------------------------------------------------------|
A------------------|---------------------------------------------------------------------|
E------------------|---------------------------------------------------------------------|

Chorus
Guitar 1:
E-Messes-around-on-high-G#-triad-but-can-play-this-|
B--------------------------------------------------|
G--------------66666666----------------------------|
D-44-44-4-44---66666666----------------------------| x4
A-44-44-4-44---44444444----------------------------|
E-22-22-2-22---------------------------------------|

Guitar 2:
E-----------------------------|
B---------------6-6-6-6-------|
G-----8-8-----------------6/8-|
D---------6-------------------| x4
A-9-9-------9-9---------9-----|
E-----------------------------|

Verse:
Guitar 1:
E-------------------------------|-------------------------------|
B-------------------------------|-------------------------------|
G-------------------------------|-6666666-repeat-------88888888-|
D-6666666-repeat------8-8-5-5---|-------------------------------|
A-------------------------------|-------------------------------|
E-------------------------------|-------------------------------|
                                                       Pm  ****
Guitar 2:
E-----------------------|       E-16-16-------------16-16-------------16-16-------|
B-14-13h14p13h14-repeat-|       B-------14-14-------------14-14-------------14-14-|
G-----------------------|       G-------------13-13-------------13-13-------------|
D-----------------------|       D-------------------------------------------------|
A-----------------------|       A-------------------------------------------------| x4
E-----------------------|       E-------------------------------------------------|
                                 Pm...............................................
Chorus
Guitar 1:
E-Messes-around-on-high-G#-triad-but-can-play-this-|
B--------------------------------------------------|
G--------------66666666----------------------------|
D-44-44-4-44---66666666----------------------------| x7
A-44-44-4-44---44444444----------------------------|
E-22-22-2-22---------------------------------------|

Guitar 2:
E-----------------------------|      E-13h14p13----13h14p13----13h14p13----13h14p13----|
B---------------6-6-6-6-------|      B----------14----------14----------14----------14-|
G-----8-8-----------------6/8-|      G-------------------------------------------------|
D---------6-------------------| x7   D-------------------------------------------------|
A-9-9-------9-9---------9-----|      A-------------------------------------------------| x1
E-----------------------------|      E-------------------------------------------------|

Chorus:
Guitar 1:
E-------------------------------------|-------------------------------------|
B-------------------------------------|-------------------------------------|
G-33333333----------66666666----------|-33333333----------66666666----------|
D-33333333-44444444-66666666-66666666-|-33333333-44444444-66666666-6--------| X1
A-11111111-44444444-44444444-66666666-|-11111111-44444444-44444444-6--------|
E----------22222222----------44444444-|----------22222222----------4--------|

Guitar 2:
E-----1-2-1-------1-2-1-------1-2-|       E-----1-2-1-------1-2-1-----------|
B-2-4-------4-2-4-------4-2-4-----|       B-2-4-------4-2-4-----------------|
G---------------------------------|       G---------------------------------|
D---------------------------------| X7    D---------------------------------| X1
A---------------------------------|       A---------------------------------|
E---------------------------------|       E---------------------------------|

Bridge Part 1:
Guitar 1:
E------------------------|
B------------------------|
G----66----66----66-5555-|
D-X4----X4----X4---------| X4
A-X4-44-X4-44-X4-44-3333-|
E-X2----X2----X2---------|

Guitar 2:
E------------------------|
B------------------------| (play octave higher)
G-66666666666666666-5555-|
D------------------------| X4
A-44444444444444444-3333-|
E------------------------|

Bridge Part 2:
Guitar 1
E-------------------------------------|-------------------------------------|
B--------With-Flange-Effect-----------|-------------------------------------|
G-------------------------------------|-------------------------------------|
D-8X8X8X8X-66-6/8\6-4X4X4X4X-33-3-4-3-|-8X8X8X8X-66-6/8\6-4X4X4X4X-XXXXXXXX-|
A-8X8X8X8X-66-6/8\6-4X4X4X4X-33-3-4-3-|-8X8X8X8X-66-6/8\6-4X4X4X4X-XXXXXXXX-|
E-6X6X6X6X-44-4/6\4-2X2X2X2X-11-1/2\1-|-6X6X6X6X-44-4/6\4-2X2X2X2X-XXXXXXXX-|

Guitar 2:
E-------------------------------------|----------------------------------|
B-------------------------------------|----------------------------------|
G-------------------------------------|-------------------11---XXXXXXXXX-|
D-------------------------------------|-8-------10---11---11---XXXXXXXXX-|
A-------------------------------------|-8-------10---11---9----XXXXXXXXX-|
E-------------------------------------|-6-------8----9-------------------|

Solo:
Guitar 1:
E-------------------------------------|
B-------------------------------------|
G-------------------------------------|
D-8X8X8X8X-66-6/8\6-4X4X4X4X-33-3-4-3-| X4
A-8X8X8X8X-66-6/8\6-4X4X4X4X-33-3-4-3-|
E-6X6X6X6X-44-4/6\4-2X2X2X2X-11-1/2\1-|

Guitar 2:
E-16--------------------------------13------|-16------------------------------13------|
B---14-13-14-16-14-13-14-16-14-13-14--14-13-|---14-13-14-16-14-13-14--13-14-16--16-14-|
G-------------------------------------------|-----------------------15----------------|
D-------------------------------------------|-----------------------------------------|
A-------------------------------------------|-----------------------------------------|
E-------------------------------------------|-----------------------------------------|

E-16--------------------------------13------|
B---14-13-14-16-14-13-14-16-14-13-14--14-13-|
G-------------------------------------------|
D-------------------------------------------|
A-------------------------------------------|
E-------------------------------------------|

E-16------------------------------13-14-16-14-13---------|
B---14-13-14-16-14-13-14--13-14-16--------------16-14-13-|
G-----------------------15-------------------------------|
D--------------------------------------------------------| X2
A--------------------------------------------------------|
E--------------------------------------------------------|
                        ………………………Double…Tempo………………………………

Chorus/Outro:           2:55
Guitar 1:
E------------------------|     E--------------------------------------|
B-2----------------------|     B--------------------------------------|
G-1-------------6--------|     G--33333333----------66666666----------|
D-3------6------6----6---| X1  D--33333333-44444444-66666666-66666666-| X3
A-1------4------4----6---|     A--11111111-44444444-44444444-66666666-|
E--------2-----------4---|     E-----------22222222----------44444444-|
 ……Clean……      >>DISTORTION>>>>>

Guitar 2:
E-----------|     E-44------4-------44-----------|
B-----------|     B----4422---22222----22---X4---|
G-----------|     G------------------------------|
D-----------| X2  D------This-At-3:16------------| X2
A-----------|     A------------------------------|
E-----------|     E------------------------------|

Outro:
Guitar 1:
E-------------|-------------|-------------|
B-------------|-------------|-------------|
G-3-------8---|-3-------8---|-3-------6---|
D-3---4---8---|-3---4---8---|-3---4---6---|
A-1---4---6---|-1---4---6---|-1---4---4---|
E-----2-------|-----2-------|-----2-------|

Guitar 2:
E-------------|-------------|-------------|
B-------------|-------------|-------------|
G-10---6----3-|-10---6----3-|-10---6----6-|
D-------------|-------------|-------------|
A-8----4----1-|-8----4----1-|-8----4----4-|
E-------------|-------------|-------------|

Добавлено: 12.05.2012
Другие материалы по этой песне:
  • Аккорды и текст

Страница создана 12.05.2012
http://primanota.ru/best-interest/magic-sticks-in-becember-chords.htm
Привет, Гость.
Предлагаем пройти революционный курс по гитаре.
Подарок от PrimaNota.Ru, забирай!