PrimaNota.ru - самый крупный в мире бесплатный архив песенных текстов, аккордов, табулатур и нот


Best Coast - When You Wake Up - аккорды и текст, видео

Регистрация Запомнить меня
Войти через:  Facebook Google Twitter Vk Yandex Mail.ru

Best Coast - When You Wake Up - аккорды и текст, видео

Печатать
Просмотров: 44
When You Wake Up
Best Coast
-------------------------------------------------------------------------------
                             Best Coast - When You Wake Up
-------------------------------------------------------------------------------

I figured this song out from watching live videos and playing along. Standard tuning. All barre chords.

Tuning: Standard

Chords

    G  B  C   D   E
e|---------------------------------------------------------------------------|
B|---------------------------------------------------------------------------|
G|---------------------------------------------------------------------------|
D|--5--9--10--12--14---------------------------------------------------------|
A|--5--9--10--12--14---------------------------------------------------------|
E|--3--7--8---10--12---------------------------------------------------------|

Intro/Verses

e|---------------------------------------------------------------------------|
B|---------------------------------------------------------------------------|
G|---------------------------------------------------------------------------|
D|-5-5-5-5/9-9-9--10101010101010---------------------------------------------|
A|-5-5-5-5/9-9-9--10101010101010---------------------------------------------|
E|-3-3-3-3/7-7-7--8-8-8-8-8-8-8----------------------------------------------|

G     B   C 
I want to talk
G     B   C
But you're asleep
G     B        C
I know you hate it
G   B    C
When I do this

G    B                 C
But I need you to tell me
G    B    C  
That it's alright
G   B      C
You know I hate it
G    B  C
When we fight

Intro/Verse 3x

G    B      C
Tell me you love me
G    B      C
Even if you don't
G      B  C    
I need to hear it
G      B  C
I love to hear it

G         B        C 
Well come back and kiss me
G    B      C
It's been a while
G      B  C
I need to hold you
G   B       C 
And see you smile

G    B      C
It's always 11:30
G    B      C
It's always 11:30
G    B      C
It's always 11:30
G        E
When you wake up

G    B      C
It's always 11:30
G    B      C
It's always 11:30
G    B      C
It's always 11:30
G        E
When you wake up
G        E
When you wake up

Intro/Verse 5x

D         C
I promise you
D         C
I promise you
D       C
Promise you  
C            D          C
That I won't act like a fool

Intro/Verse 4x

G    B      C
It's always 11:30
G    B      C
It's always 11:30
G    B      C
It's always 11:30
G        E
When you wake up

G    B      C
It's always 11:30
G    B      C
It's always 11:30
G    B      C
It's always 11:30
G        E
When you wake up
G        E
When you wake up
G        E
When you wake up
G        E
When you wake up

end on G
Добавлено: 16.10.2015
Другие материалы по этой песне:
  • Аккорды и текст

Страница создана 16.10.2015
http://primanota.ru/best-coast/when-you-wake-up-chords.htm
Привет, Гость.
Предлагаем пройти революционный курс по гитаре.
Подарок от PrimaNota.Ru, забирай!