PrimaNota.ru - самый крупный в мире бесплатный архив песенных текстов, аккордов, табулатур и нот


Beseech - Gimme Gimme Gimme - текст песни, таба, видео

Регистрация Запомнить меня
Войти через:  Facebook Google Twitter Vk Yandex Mail.ru

Beseech - Gimme Gimme Gimme - текст песни, таба, видео

Печатать
Просмотров: 322
                
     Beseech- Gimme gimme gimme (ABBA cover)

    Tab by Caranokol


          1 step down             
d|--------------------------------------------------------------------|
A|------5----------5------------5----------5--------------------------|
F|----4---4------5---5-------4----0------4---4---------(x6)-----------|
C|--2---------2------------------------2------------------------------|
G|-----------------------0--------------------------------------------|
D|--------------------------------------------------------------------|

  guitar I
                (effect: I think Flanger)         
d|------------------------------------------------------------------------|
A|-------------------------------------------------7-5--------------------|
F|------4---------------4--------------2--4----4-7-----7-4-------4--------|
C|--2-5---5-4-2----2--5----5--4--2-4-5-----------------------2-5---5-4-2--|
G|------------------------------------------------------------------------|
D|------------------------------------------------------------------------|

   guitar II (distort)
                --palm mute---
d|--------------------------------------------------------------------|
A|--------------------------------------------------------------------|
F|--------------------------------------------------------------------|
C|-------------------------------------------------------(x2)---------|
G|--2--2222222---5-5555555---9-9999999----2-2222222-------------------|
D|--0--0000000---3-3333333---7-7777777----0-0000000-------------------|


     
    verse

         guitar II         ---palm mute---      
d|--------------------------------------------------------------------|
A|--------------------------------------------------------------------|
F|--------------------------------------------------------------------|
C|--------------------------------------------------------(repeat x2)-|
G|---/7--5-2-------7--77777777---7-7777777--7-77777777--2-------------|
D|------------3----5--55555555---5-5555555--5-55555555--0-------------|
         
    
    guitar II          --palm mute--
d|----------------------------------------------------------|
A|----------------------------------------------------------|
F|----------------------------------------------------------|
C|----------------------------------------------------------|
G|-10------7-------9-99999999999999999999-------------------|
D|-8-------5-------7-77777777777777777777-------------------|

     
  Chorus
          
d|------------------------------------------------------------|
A|------------------------------------------------------------|
F|------------------------------------------------------------|
C|------------5-xxx----7-xxx----9xxx-------(repeat)-----------|
G|---2--xxx---3-xxx----5-xxx----7xxx--------------------------|
D|---0--xxx---------------------------------------------------|
Добавлено: 27.06.2012
Вам также может быть интересно:
Другие материалы по этой песне:
  • Аккорды и текст

Страница создана 06.03.2012
http://primanota.ru/beseech/gimme-gimme-gimme-chords.htm
Привет, Гость.
Предлагаем пройти революционный курс по гитаре.
Подарок от PrimaNota.Ru, забирай!