PrimaNota.ru - самый крупный в мире бесплатный архив песенных текстов, аккордов, табулатур и нот


Berzerker - The Cancer - текст песни, таба, видео

Регистрация Запомнить меня
Войти через:  Facebook Google Twitter Vk Yandex Mail.ru

Berzerker - The Cancer - текст песни, таба, видео

Печатать
Просмотров: 98
-----------------------------------------------------------------------------
                             The Cancer - The Berzerker
-----------------------------------------------------------------------------
Tabbed by: Elliot Page
E-mail: squirrelofrock@hotmail.co.uk

Tuning: A Standard (A D G C E A)

Intro riff, all tremolo picked (repeated several times throughout):

a|--------------------------------------------------------------------------|
E|--------------------------------------------------------------------------|
C|--------------------------------------------------------------------------|
G|----2---------------------------------------------------------------------|
D|--------------2--3--5--------------2--------------------------------------|
A|--------------------------0-----------3--0----------3---------------------|

Verse riff, part 1, all tremolo picked:

a|---------------------------------------------------------------------------|
E|---------------------------------------------------------------------------|
C|---------------------------------------------------------------------------|
G|----5--4--2-------------------5--4--2--------------------------------------|
D|-------------3--2--0--2--3-------------3--2--0--2--3-----------------------|
A|---------------------------------------------------------------------------|

Verse riff, part 2, all tremolo picked:

a|----------------------------------------------------------------------------|
E|----------------------------------------------------------------------------|
C|-----------------3---------------------------3------------------------------|
G|----------2--4-------4--2--------------2--4-----4--2------------------------|
D|----2--3---------------------3--2--3------------------3---------------------|
A|----------------------------------------------------------------------------|

Break at 1:21 :

a|---------------------------------------------------------------------------|
E|---------------------------------------------------------------------------|
C|-----------------------------5--------------------------------5------------|
G|----2--------6---3---2-------5---6---2-------6---3---2--------5---6--------|
D|----2--------6---3---2-------3---6---2-------6---3---2--------3---6--------|
A|----0--------4---1---0-----------4---0-------4---1---0------------4--------|

Riff at 1:55 :

a|---------------------------------------------------------------------------|
E|---------------------------------------------------------------------------|
C|---------------------------------------------------------------------------|
G|---------------------------------------------------------------------------|
D|--------------------------------------3------------3------------3----------|
A|----0----0--0--0--0--1--0--0--0--0-0-----4-4-4-4-4---3-3-3-3-3-------------|
           .     .  .        .     . .       .   . .     .   . .


Short riff at the end, approx. 2:45, all tremolo picked:

a|---------------------------------------------------------------------------|
E|---------------------------------------------------------------------------|
C|----0----3---0----3---0----0---3---0---------------------------------------|
G|---------------------------------------3-----------------------------------|
D|---------------------------------------------------------------------------|
A|---------------------------------------------------------------------------|

These are all the riffs needed to play the song.

************************************

| .   palm mute
| /   slide up
| \   slide down
| h   hammer-on
| p   pull-off
| ~   vibrato
| +   harmonic
| x   Mute note
| b   Bend
| pb  Pre-bend
| br  Bend release
| pbr Pre-bend release
| brb Bend release bend

************************************
Добавлено: 30.11.2013
Другие материалы по этой песне:
  • Аккорды и текст

Страница создана 30.11.2013
http://primanota.ru/berzerker/the-cancer-chords.htm
Привет, Гость.
Предлагаем пройти революционный курс по гитаре.
Подарок от PrimaNota.Ru, забирай!