PrimaNota.ru - самый крупный в мире бесплатный архив песенных текстов, аккордов, табулатур и нот


Berzerker - Reality - текст песни, таба, бас-таба, видео

Регистрация Запомнить меня
Войти через:  Facebook Google Twitter Vk Yandex Mail.ru

Berzerker - Reality - текст песни, таба, бас-таба, видео

Печатать
Просмотров: 107
Reality- BERZERKER
How heavys this band!! This is 100% correct and remember to
check out the new Berzerker DVD that'll be out soon!! Also check
out the film clip for this song if you can get a hold of it.
Enjoy and peace out! Tabbed by Steve Koch

Gtr I (A E A D G A) - 'Berzerker Guitar'



 4/4
  Gtr I
  W          W          W          W
|----------|----------|----------|------||
|----------|----------|----------|------||
|----------|----------|----------|------||
|----------|----------|----------|------||
|----------|----------|----------|------||
|----------|----------|----------|------||


  S S S S S S S S S S S S  S  S  S  S   S S S S S S S S S S S S S S S S
|-------------------------------------|-----------------------------------|
|-------------------------------------|-----------------------------------|
|-------------------------------------|-----------------------------------|
|-8-8-8-8-9-9-9-9---------------------|-------------8-8-------------------|
|-----------------6-6-6-6-10-10-10-10-|-----------------6-6-6-6-4-4-4-4---|
|-------------------------------------|-6-6-6-6-7-7-----------------------|


  S S S S S S S S  S  S  S  S S S S S   S S S S S S S S S S S S S S S S
|-------------------------------------|-----------------------------------|
|-------------------------------------|-----------------------------------|
|-------------------------------------|-----------------------------------|
|---------9-9-9-9---------------------|-------------8-8-------------------|
|-7-7-7-7---------10-10-10-10-7-7-7-7-|-----------------6-6-6-6-4-4-4-4---|
|-------------------------------------|-6-6-6-6-6-6-----------------------|


  S S S S S S S S S S S S  S  S  S  S   S S S S S S S S S S S S S S S S
|-------------------------------------|-----------------------------------|
|-------------------------------------|-----------------------------------|
|-------------------------------------|-----------------------------------|
|-8-8-8-8-9-9-9-9---------------------|-------------8-8-------------------|
|-----------------6-6-6-6-10-10-10-10-|-----------------6-6-6-6-4-4-4-4---|
|-------------------------------------|-6-6-6-6-7-7-----------------------|


  S S S S S S S S  S  S  S  S S S S S   S S S S S S S S S S S S S S S S
|-------------------------------------|-----------------------------------|
|-------------------------------------|-----------------------------------|
|-------------------------------------|-----------------------------------|
|---------9-9-9-9---------------------|-------------8-8-------------------|
|-7-7-7-7---------10-10-10-10-7-7-7-7-|-----------------6-6-6-6-4-4-4-4---|
|-------------------------------------|-6-6-6-6-6-6-----------------------|


  S S S S S S S S S S S S S S S S   S S S S S S S S  S  S  S  S  S  S  S  S
|---------------------------------|-------------------------------------------|
|---------------------------------|-------------------------------------------|
|---------------------------------|-------------------------------------------|
|-8-8-8-8-8-8-8-8-9-9-9-9-9-9-9-9-|-------------------------------------------|
|---------------------------------|-6-6-6-6-6-6-6-6-10-10-10-10-10-10-10-10---|
|---------------------------------|-------------------------------------------|


  S S S S S S S S S S S S S S S S   S S S S S S S S S S S S S S S S
|---------------------------------|-----------------------------------|
|---------------------------------|-----------------------------------|
|---------------------------------|-----------------------------------|
|-------------------------8-8-8-8-|-----------------------------------|
|---------------------------------|-6-6-6-6-6-6-6-6-4-4-4-4-4-4-4-4---|
|-6-6-6-6-6-6-6-6-7-7-7-7---------|-----------------------------------|


  S S S S S S S S S S S S S S S S   S S S S S S S S  S  S  S  S  S  S  S  S
|---------------------------------|-------------------------------------------|
|---------------------------------|-------------------------------------------|
|---------------------------------|-------------------------------------------|
|-8-8-8-8-8-8-8-8-9-9-9-9-9-9-9-9-|-------------------------------------------|
|---------------------------------|-6-6-6-6-6-6-6-6-10-10-10-10-10-10-10-10---|
|---------------------------------|-------------------------------------------|


  S S S S S S S S S S S S S S S S   S S S S S S S S S S S S S S S S
|---------------------------------|-----------------------------------|
|---------------------------------|-----------------------------------|
|---------------------------------|-----------------------------------|
|-------------------------8-8-8-8-|-----------------------------------|
|---------------------------------|-6-6-6-6-6-6-6-6-4-4-4-4-4-4-4-4---|
|-6-6-6-6-6-6-6-6-7-7-7-7---------|-----------------------------------|


  W          +W           +W           +W
|----------|------------|------------|--------|
|----------|------------|------------|--------|
|-7--------|-(7)--------|-(7)--------|-(7)----|
|-8--------|-(8)--------|-(8)--------|-(8)----|
|-8--------|-(8)--------|-(8)--------|-(8)----|
|-6--------|-(6)--------|-(6)--------|-(6)----|


  S S S S S S S S S S S S  S  S  S  S   S S S S S S S S S S S S S S S S
|-------------------------------------|-----------------------------------|
|-------------------------------------|-----------------------------------|
|-------------------------------------|-----------------------------------|
|-8-8-8-8-9-9-9-9---------------------|-------------8-8-------------------|
|-----------------6-6-6-6-10-10-10-10-|-----------------6-6-6-6-4-4-4-4---|
|-------------------------------------|-6-6-6-6-7-7-----------------------|


  S S S S S S S S  S  S  S  S S S S S   S S S S S S S S S S S S S S S S
|-------------------------------------|-----------------------------------|
|-------------------------------------|-----------------------------------|
|-------------------------------------|-----------------------------------|
|---------9-9-9-9---------------------|-------------8-8-------------------|
|-7-7-7-7---------10-10-10-10-7-7-7-7-|-----------------6-6-6-6-4-4-4-4---|
|-------------------------------------|-6-6-6-6-6-6-----------------------|


  S S S S S S S S S S S S S S S S   S S S S S S S S  S  S  S  S  S  S  S  S
|---------------------------------|-------------------------------------------|
|---------------------------------|-------------------------------------------|
|---------------------------------|-------------------------------------------|
|-8-8-8-8-8-8-8-8-9-9-9-9-9-9-9-9-|-------------------------------------------|
|---------------------------------|-6-6-6-6-6-6-6-6-10-10-10-10-10-10-10-10---|
|---------------------------------|-------------------------------------------|


  S S S S S S S S S S S S S S S S   S S S S S S S S S S S S S S S S
|---------------------------------|-----------------------------------|
|---------------------------------|-----------------------------------|
|---------------------------------|-----------------------------------|
|-------------------------8-8-8-8-|-----------------------------------|
|---------------------------------|-6-6-6-6-6-6-6-6-4-4-4-4-4-4-4-4---|
|-6-6-6-6-6-6-6-6-7-7-7-7---------|-----------------------------------|


  H    H     H    H      H    H      H    H
|----------|-----------|-----------|-----------|
|----------|-----------|-----------|-----------|
|------3---|------5----|------3----|-----------|
|-4----3---|-2----5----|-4----3----|-2----5----|
|-4----1---|-2----3----|-4----1----|-2----5----|
|-2--------|-0---------|-2---------|-0----3----|


  PM--------------------------------------------------------------|
  S S S S S S S S S S S S S S S S   S S S S S S S S S S S S S S S S
|---------------------------------|-----------------------------------|
|---------------------------------|-----------------------------------|
|---------------------------------|-----------------------------------|
|---------------------------------|-----------------------------------|
|---------------------------------|-----------------------------------|
|-2-2-2-2-2-2-2-2-6-6-6-6-6-6-6-6-|-0-0-0-0-0-0-0-0-3-3-3-3-3-3-3-3---|


  PM----|   PM----|        PM----|    PM----|
  S S S S Q S S S S Q      S S S S Q  S S S S Q
|-----------------------|--------------------------|
|-----------------------|--------------------------|
|-----------------------|--------------------------|
|-----------------------|---------------------5----|
|---------4---------8---|----------7--3-3-3-3------|
|-2-2-2-2---6-6-6-6-----|--0-0-0-0-----------------|


  PM------------------------------------------------------------------|
  E E E E E E E E   E E E E E E E E   E E E E E E E E   E E E E E E E E
|-----------------|-----------------|-----------------|-----------------|
|-----------------|-----------------|-----------------|-----------------|
|-----------------|-----------------|-----------------|-----------------|
|-----------------|-----------------|-----------------|-----------------|
|-8-8-8-8-8-8-8-8-|-9-9-9-9-9-9-9-9-|-7-7-7-7-7-7-7-7-|-5-5-5-5-5-5-5-5-|
|-6-6-6-6-6-6-6-6-|-7-7-7-7-7-7-7-7-|-5-5-5-5-5-5-5-5-|-3-3-3-3-3-3-3-3-|


   E  E  E  E  E  E  E  E    E  E  E  E  E  E  E  E
|-------------------------|-------------------------|
|-------------------------|-------------------------|
|-------------------------|-------------------------|
|-15-15-15-15-15-15-15-15-|-16-16-16-16-16-16-16-16-|
|-13-13-13-13-13-13-13-13-|-14-14-14-14-14-14-14-14-|
|-------------------------|-------------------------|


  E E E E E E E E    E  E  E  E  E  E  E  E
|-----------------|-------------------------|
|-----------------|-------------------------|
|-----------------|-------------------------|
|-8-8-8-8-8-8-8-8-|-12-12-12-12-12-12-12-12-|
|-6-6-6-6-6-6-6-6-|-10-10-10-10-10-10-10-10-|
|-----------------|-------------------------|


  PM------------------------------------------------------------------|
  E E E E E E E E   E E E E E E E E   E E E E E E E E   E E E E E E E E
|-----------------|-----------------|-----------------|-----------------|
|-----------------|-----------------|-----------------|-----------------|
|-----------------|-----------------|-----------------|-----------------|
|-----------------|-----------------|-----------------|-----------------|
|-8-8-8-8-8-8-8-8-|-9-9-9-9-9-9-9-9-|-8-8-8-8-8-8-8-8-|-5-5-5-5-5-5-5-5-|
|-6-6-6-6-6-6-6-6-|-7-7-7-7-7-7-7-7-|-6-6-6-6-6-6-6-6-|-3-3-3-3-3-3-3-3-|


   E  E  E  E  E  E  E  E    E  E  E  E  E  E  E  E
|-------------------------|-------------------------|
|-------------------------|-------------------------|
|-------------------------|-------------------------|
|-------------------------|-------------------------|
|--8--8--8--8--8--8--8--8-|--9--9--9--9-13-13-13-13-|
|--6--6--6--6--6--6--6--6-|--7--7--7--7-------------|

                    PM|     PM|
  E E E E E E E E   E E E E E E E E
|-----------------|-----------------|
|-----------------|-----------------|
|-----------------|-----------------|
|-----------------|-------------9---|
|-6-6-6-6-6-6-6-6-|-----6-9-------9-|
|-----------------|-6-6-----6-6-----|


   Q  Q  Q   Q     Q  Q  Q   Q     Q  Q  Q   Q     Q  Q  Q   Q
|---------------|---------------|---------------|---------------|
|---------------|---------------|---------------|---------------|
|---------------|---------------|---------------|---------------|
|-11-----9------|-11-----9------|-11-----9------|-11-----9------|
|--9--8--7--10--|--9--8--7--10--|--9--8--7--10--|--9--8--7--10--|
|-----6------8--|-----6------8--|-----6------8--|-----6------8--|


  S S S S S S S S S S S S S S S S   S S S S S S S S S S S S S S S S
|---------------------------------|-----------------------------------|
|---------------------------------|-----------------------------------|
|---------------------------------|-----------------------------------|
|---------------------------------|-----------------------------------|
|-9-9-9-9---------7-7-7-7---------|-9-9-9-9---------7-7-7-7-----------|
|---------6-6-6-6---------8-8-8-8-|---------6-6-6-6---------8-8-8-8---|


                                    PM----------------------------|
  S S S S S S S S S S S S S S S S   S S S S S S S S S S S S S S S S
|---------------------------------|-----------------------------------|
|---------------------------------|-----------------------------------|
|---------------------------------|-----------------------------------|
|---------------------------------|-----------------------------------|
|-9-9-9-9---------7-7-7-7---------|-----------------------------------|
|---------6-6-6-6---------8-8-8-8-|-2-2-2-2-6-6-6-6-0-0-0-0-3-3-3-3---|


  S S S S S S S S S S S S S S S S   S S S S S S S S S S S S S S S S
|---------------------------------|-----------------------------------|
|---------------------------------|-----------------------------------|
|---------------------------------|-----------------------------------|
|---------------------------------|-----------------------------------|
|-9-9-9-9---------7-7-7-7---------|-9-9-9-9---------7-7-7-7-----------|
|---------6-6-6-6---------8-8-8-8-|---------6-6-6-6---------8-8-8-8---|


                                    PM----------------------------|
  S S S S S S S S S S S S S S S S   S S S S S S S S S S S S S S S S
|---------------------------------|-----------------------------------|
|---------------------------------|-----------------------------------|
|---------------------------------|-----------------------------------|
|---------------------------------|-----------------------------------|
|-9-9-9-9---------7-7-7-7---------|-----------------------------------|
|---------6-6-6-6---------8-8-8-8-|-2-2-2-2-6-6-6-6-0-0-0-0-3-3-3-3---|


  S S S S S S S S S S S S S S S S   S S S S S S S S S S S S S S S S
|---------------------------------|-----------------------------------|
|---------------------------------|-----------------------------------|
|---------------------------------|-----------------------------------|
|---------------------------------|-----------------------------------|
|-9-9-9-9---------7-7-7-7---------|-9-9-9-9---------7-7-7-7-----------|
|---------6-6-6-6---------8-8-8-8-|---------6-6-6-6---------8-8-8-8---|


                                    PM----------------------------|
  S S S S S S S S S S S S S S S S   S S S S S S S S S S S S S S S S
|---------------------------------|-----------------------------------|
|---------------------------------|-----------------------------------|
|---------------------------------|-----------------------------------|
|---------------------------------|-----------------------------------|
|-9-9-9-9---------7-7-7-7---------|-----------------------------------|
|---------6-6-6-6---------8-8-8-8-|-2-2-2-2-6-6-6-6-0-0-0-0-3-3-3-3---|


  S S S S S S S S S S S S S S S S   S S S S S S S S S S S S S S S S
|---------------------------------|-----------------------------------|
|---------------------------------|-----------------------------------|
|---------------------------------|-----------------------------------|
|---------------------------------|-----------------------------------|
|-9-9-9-9---------7-7-7-7---------|-9-9-9-9---------7-7-7-7-----------|
|---------6-6-6-6---------8-8-8-8-|---------6-6-6-6---------8-8-8-8---|


                                    PM--------------------|
  S S S S S S S S S S S S S S S S   S S S S S S S S S S S S E E
|---------------------------------|--------------------------------*|
|---------------------------------|--------------------------------*|
|---------------------------------|--------------------------------*|
|---------------------------------|-------------------------5-5----*|
|-9-9-9-9---------7-7-7-7---------|-------------------------3-3----*|
|---------6-6-6-6---------8-8-8-8-|-2-2-2-2-6-6-6-6-0-0-0-0--------*|




--------------------------------------------------------------------------------


Duration Legend
---------------
W - whole; H - half; Q - quarter; E - 8th; S - 16th; T - 32nd; X - 64th; a - acciaccatura
+ - note tied to previous; . - note dotted; .. - note double dotted
Uncapitalized letters represent notes that are staccato (1/2 duration)
Irregular groupings are notated above the duration line
Duration letters will always appear directly above the note/fret number it represents the
duration for.  Duration letters with no fret number below them represent rests.  Multi-
bar rests are notated in the form Wxn, where n is the number of bars to rest for.  Low
melody durations appear below the staff

Tablature Legend
----------------
 h   - hammer-on
 p   - pull-off
 b   - bend
 pb  - pre-bend
 r   - bend release (if no number after the r, then release immediately)
 /\  - slide into or out of (from/to "nowhere")
 s   - legato slide
 S   - shift slide
 - natural harmonic
[n]  - artificial harmonic
n(n) - tapped harmonic
 ~   - vibrato
 tr  - trill
 T   - tap
 TP  - trem. picking
 PM  - palm muting
\n/  - tremolo bar dip; n = amount to dip
 \n  - tremolo bar down
 n/  - tremolo bar up
/n\  - tremolo bar inverted dip
 =   - hold bend; also acts as connecting device for hammers/pulls
 <> - volume swell (louder/softer)
 x   - on rhythm slash represents muted slash
 o   - on rhythm slash represents single note slash

Misc Legend
-----------
 |  - bar
||  - double bar
||o - repeat start
o|| - repeat end
*|  - double bar (ending)
 :  - bar (freetime)
 $  - Segno
 &  - Coda
Tempo markers -  = BPM(8/16=s8/s16), where s8 = swing 8ths, s16 = swing 16ths
Добавлено: 28.11.2013
Другие материалы по этой песне:

Страница создана 16.04.2012
http://primanota.ru/berzerker/reality-chords.htm
Привет, Гость.
Предлагаем пройти революционный курс по гитаре.
Подарок от PrimaNota.Ru, забирай!