PrimaNota.ru - самый крупный в мире бесплатный архив песенных текстов, аккордов, табулатур и нот


Berzerker - No One Wins - текст песни, таба, бас-таба, видео

Регистрация Запомнить меня
Войти через:  Facebook Google Twitter Vk Yandex Mail.ru

Berzerker - No One Wins - текст песни, таба, бас-таба, видео

Печатать
Просмотров: 125
Band: The Berzerker
Song: No-One Wins
Album: Dissimulate
Transcribed by: Andrew Collyer
Contact: the_hauntedcrown@hotmail.com

Copyright (c) Earache Records, 2002

TUNING: A D G C E A

. - palm mute / - slide up to
\ - slide down to ~ - vibrato
h - hammer on p - pull off
, - slight palm mute () - ghost note, sustained note
" - tremolo note <> - Trill

Suffixes for bend
f - full bend h - half bend
ph - pinched harmonic q - quarter bend
t - tap bend * - see comment
^ - Hold bend r - release bend
x - Stuccatto ~ - vibrato bend


Riff 1
A---------------------------------------|
E----------*tens------------------------|
C---------------------------------------|
G---997799101099779955774455------------|
D-77------------------------5577--7-8-5-|
A---------------------------------5-6-5-|
                                  . . .

Riff 2   "There'll be a time"
----------------------------------------|
-----------*------*-------------*all----|
---------------99----77--55------tens---|
---997799101099--1010--99--7799---------|
-77----------------------------1010-----|
----------------------------------------|

Riff 1 x 1

Riff 3   "I can take what they've taught and make it work"
---------------------17~--|
--------------------------|
--------------------------|
--------------------------|
-6-7---2-6-5---3-2--------|
-4-5---0-4-3---1-0--------|

Riff 4 (play 4 times) "This would be a better place..."
---------------------------------|
---------------------------------|
---------------------------------|
-2222223355332211----------------|
-----------------2--2-2-3-2-3----|
-----------------0--0-0-1-0-1----|


Riff 5 (play 4 times) "All the dreams, ideals you fought for..."
----------------------------------------|
----------------------------------------|
----------------------------------------|
-\44--44--33--33--22--22--11--11--------|
----55--55--44--44--33--33--22--22------|
----------------------------------------|

Riff 4 x 1

Riff 6   "...WE'VE KNOWN"
---------------------------------------------------------------------|
---------------------------------------------------------------------|
---------------------------------------------------------------------|
--------------------------------------------------7--9---------------|
-4----------5------------5-6----------------------5--7---------------|
-2-2222-22223--2222-2222-3-4-22222222222222222222------2222-2222-----|
   .... ....   .... ....     ....................      .... ....

Riff 2 x 1
Riff 1 x 1
Riff 2 x 1
Riff 3 x 1
Riff 4 x 1
Riff 5 x 1
Добавлено: 04.07.2013
Другие материалы по этой песне:
  • Аккорды и текст

Страница создана 04.07.2013
http://primanota.ru/berzerker/no-one-wins-chords.htm
Привет, Гость.
Предлагаем пройти революционный курс по гитаре.
Подарок от PrimaNota.Ru, забирай!