PrimaNota.ru - самый крупный в мире бесплатный архив песенных текстов, аккордов, табулатур и нот


Berzerker - Last Mistake - текст песни, таба, бас-таба, видео

Регистрация Запомнить меня
Войти через:  Facebook Google Twitter Vk Yandex Mail.ru

Berzerker - Last Mistake - текст песни, таба, бас-таба, видео

Печатать
Просмотров: 114
Уроки эстрадного вокала в Санкт-Петербурге
  - palm mute           /  - slide up to
\  - slide down to       ~  - vibrato
h  - hammer on           b  - Bend
p  - pull off            Suffixes for bend
t  - tap                 f  - full bend    h - half bend
ph - pinched harmonic    q  - quarter bend t - tap bend
*  - see comment         ^  - Hold bend    r release bend
x  - Stuccatto           ~  - vibrato bend
,  - slight palm mute    () - ghost note, sustained note
"  - tremolo note        <> - Trill

This is Cunting Leper's tab(cunting leper is from the berzerker forums) i tabbed
it the way i play it. I corrected a few parts he got wrong.  I'm just giving him
credit considering this is a different version of his tab.

Tunning A D G C E A

Riff 1
|-----------------------------------------------------|
|-----------------------------------------------------|
|-------------------7------------------------7-8------|
|-5---7-8---7-----7-5--8---5---7-8---7-----7-5-6------|
|-3---5-6---5-6---5----6---3---5-6---5-6---5----------|
|-------------4------------------------4--------------|

Riff 2
|---------------------------------------------------|
|---------------------------------------------------|
|---------------------------------------------------|
|----5-----------5-----------5----------------------|
|-3-----6--5--3-----5--6--3-----6--5-----5--6--5----|
|-------------------------------------3-------------|
  ________________Tremolo Pick__________________

Riff 3
|-----------------|   |-----------------------------------|
|-played slower---|   |-this is the faster part-----------|
|-----------------|   |-----------------------------------|
|---5-------5-----|1x |---5-------5-------5---------------|2x's
|-3---6-5-3---5-6-|   |-3---6-5-3---5-6-3---6-5---5-6-5---|
|-----------------|   |-------------------------3---------|

|-------------------|
|-------------------|
|-------------------|
|---5---------------|1x
|-3---6-5---5-6-5---|
|---------3---------|
  __tremolo pick_

Riff 4
|---------------------------------------------------------------------------|
|---------------------------------------------------------------------------|
|---------------------------------------------------------------------------|
|-----------------------9----------9----9-----------------------9-----------|
|-7--9-10---9-7---9-10----10-12-7----10---9-10-12-10--7---12-10---10-12-7---|
|---------------------------------------------------------------------------|
  ____________________________tremolo pick_______________________________

Riff 4 cont'd
 --------------------------------------------------------------|
 --------------------------------------------------------------|
 --------------------------------------------------------------|
 -------------------------------------------------9------------|
 -10-12-10-9-10-7-10-12-10-9-7-10-12-10-9-10-7-10---10-12-10---|
 --------------------------------------------------------------|
  _________________tremolo pick_____________________________

Riff 5
|------------------------------------------------------------|
|------------------------------------------------------------|
|------------------------------------------------------------|
|------------------------------------------------------------|2x's
|---------------------------------------------------2---1----|
|-0-2-3-5-3-2-5--0-2-3-5-3-2---0-2-3-5-3-2-5--0-2-3---3---2--|

Riff 6
|------------------------------------------------------------|
|------------------------------------------------------------|
|------------------------------------------------------------|
|---------------------------------------------------2---1----|2x's
|-0-2-3-5-3-2-5--0-2-3-5-3-2---0-2-3-5-3-2-5--0-2-3---3---2--|
|------------------------------------------------------------|
  _____________________tremolo pick________________________

Riff 7
|------------------------------|     |--------------------------|
|------------------------------|     |--------------------------|
|------------------------------|     |--------------------------|
|-------4--------------7-------|3x's |-------4-------------7----|
|-0--5-----4-----0--5-----7----|     |-0--5-----4----0--5-------|
|------------------------------|     |--------------------------|
  _____tremolo pick________            __tremolo pick____

Repeat Riff 2
Repeat Riff 3

Riff 8
|-------------------------------------------------------------------------------|
|-------------------------------------------------------------------------------|
|-------------------------------------------------------------------------------|
|-------------------7---------7----7-------------------7------------------------|
|-5--7-8--7-5--7-8--5-8-10-5--5-8--5-7--8-10-8-5--10-8-5-8-10-5---------------5-|
|-3--5-6--5-3--5-6----6-8--3----6----5--6-8--6-3--8--6---6-8--3--6-8-6-5-6----3-|
                                                         . .     trem. pick

Riff 8 cont'd
 -----------------------------------------------------|
 -----------------------------------------------------|
 -----------------------------------------------------|
 -----------------------------------------------------|
 -----------5---------------5----5--------------------|
 -6-8-6-5---3--6-8-6-5-6----3--6---6-8-6--------------|
 trem pick     trem pick       trem pick

Repeat Riff 5
Repeat Riff 6

|---------------------------------------------------------------------|
|---------------------------------------------------------------------|
|---------------------------------------------------------------------|
|-----------------------------------66------------------99------------|2x's
|-------4------------7------222-777-44-66666666-222-777-77-99999999---|
|-0--5-----4---0--5-----7---000-555----44444444-000-555----77777777---|
 __tremolo pick__________   ... ... .. ........ ... ... .. ........

Thanks to thudord@yahoo.com
Добавлено: 09.10.2013
Другие материалы по этой песне:
  • Аккорды и текст

Страница создана 09.10.2013
http://primanota.ru/berzerker/last-mistake-chords.htm
Привет, Гость.
Предлагаем пройти революционный курс по гитаре.
Подарок от PrimaNota.Ru, забирай!