PrimaNota.ru - самый крупный в мире бесплатный архив песенных текстов, аккордов, табулатур и нот


Berzerker - February - бас-таба, видео

Регистрация Запомнить меня
Войти через:  Facebook Google Twitter Vk Yandex Mail.ru

Berzerker - February - бас-таба, видео

Печатать
Просмотров: 78
 February

bass tabs tuned(A D G C E A)

  H   H     H    H     H    H      H    H
|---------|----------|----------|------------|
|---------|----------|----------|------------|
|---------|----------|----------|------------|
|-2---3---|-5----8---|-2----3---|--2---------|
|---------|----------|----------|-------1----|


    Q  E E T T T T T T T T T T T T T T T T   Q  E Q   Q E   8x   Wx8
||-----------------------------------------|----------------||---------|
||o----------------------------------------|---------------o||---------|
||-----------------------------------------|----------------||---------|
||o-2--3-0-0-0-0-0-0-0-0-0-2-2-2-2-3-3-3-3-|-2--3-------3--o||---------|
||-----------------------------------------|------1-/12-----||---------|


  
    S S S S S S S S S S S S S S S S   S S S S S S S S S S S S S S S S
||----------------------------------|----------------------------------|
||o---------------------------------|----------------------------------|
||----------------------------------|----------------------------------|
||o---------------------------------|----------------------------------|
||--5-5-5-5-5-5-5-5-5-5-5-5-5-5-5-5-|-5-5-5-5-5-5-5-5-5-5-5-5-5-5-5-5--|


  S S S S S S S S S S S S S S S S   S S S S S S S S S S S S S S S S
|---------------------------------|-----------------------------------|
|---------------------------------|-----------------------------------|
|---------------------------------|-----------------------------------|
|---------------------------------|-----------------------------------|
|-6-6-6-6-6-6-6-6-6-6-6-6-6-6-6-6-|-6-6-6-6-6-6-6-6-6-6-6-6-6-6-6-6---|


  S S S S S S S S S S S S S S S S   S S S S S S S S S S S S S S S S
|---------------------------------|-----------------------------------|
|---------------------------------|-----------------------------------|
|---------------------------------|-----------------------------------|
|---------------------------------|-----------------------------------|
|-8-8-8-8-8-8-8-8-8-8-8-8-8-8-8-8-|-8-8-8-8-8-8-8-8-8-8-8-8-8-8-8-8---|


  S S S S S S S S S S S S S S S S   S S S S S S S S S S S S S S S S    4x
|---------------------------------|------------------------------------||
|---------------------------------|-----------------------------------o||
|---------------------------------|------------------------------------||
|---------------------------------|-----------------------------------o||
|-5-5-5-5-5-5-5-5-5-5-5-5-5-5-5-5-|-5-5-5-5-5-5-5-5-5-5-5-5-5-5-5-5----||


    S S S S S S S S S S S S S S S S  S S S S S S S S S S S S S S S S
||--------------------------------------------------------------------|
||o-------------------------------------------------------------------|
||--------------------------------------------------------------------|
||o-2-2-2-2-2-2-2-2-2-2-2-2-2-2-2-2--3-3-3-3-3-3-3-3-3-3-3-3-3-3-3-3--|
||--------------------------------------------------------------------|


  S S S S S S S S S S S S S S S S  S S S S S S S S S S S S S S S S
|---------------------------------------------------------------------||
|--------------------------------------------------------------------o||
|---------------------------------------------------------------------||
|-2-2-2-2-2-2-2-2-2-2-2-2-2-2-2-2------------------------------------o||
|----------------------------------1-1-1-1-1-1-1-1-1-1-1-1-1-1-1-1----||


  W   W   W    W    W   W   W   W
|---|---|---|-----|---|---|---|----|
|---|---|---|-----|---|---|---|----|
|---|---|---|-----|---|---|---|----|
|-2-|-3-|-5-|--8--|-2-|-3-|-2-|----|
|---|---|---|-----|---|---|---|-1--|


    S S S S S S S S S S S S S S S S   S S S S S S S S S S S S S S S S
||----------------------------------|----------------------------------|
||o---------------------------------|----------------------------------|
||----------------------------------|----------------------------------|
||o---------------------------------|----------------------------------|
||--5-5-5-5-5-5-5-5-5-5-5-5-5-5-5-5-|-5-5-5-5-5-5-5-5-5-5-5-5-5-5-5-5--|


  S S S S S S S S S S S S S S S S   S S S S S S S S S S S S S S S S
|---------------------------------|-----------------------------------|
|---------------------------------|-----------------------------------|
|---------------------------------|-----------------------------------|
|---------------------------------|-----------------------------------|
|-6-6-6-6-6-6-6-6-6-6-6-6-6-6-6-6-|-6-6-6-6-6-6-6-6-6-6-6-6-6-6-6-6---|


  S S S S S S S S S S S S S S S S   S S S S S S S S S S S S S S S S
|---------------------------------|-----------------------------------|
|---------------------------------|-----------------------------------|
|---------------------------------|-----------------------------------|
|---------------------------------|-----------------------------------|
|-8-8-8-8-8-8-8-8-8-8-8-8-8-8-8-8-|-8-8-8-8-8-8-8-8-8-8-8-8-8-8-8-8---|


  S S S S S S S S S S S S S S S S   S S S S S S S S S S S S S S S S
|---------------------------------|------------------------------------||
|---------------------------------|-----------------------------------o||
|---------------------------------|------------------------------------||
|---------------------------------|-----------------------------------o||
|-5-5-5-5-5-5-5-5-5-5-5-5-5-5-5-5-|-5-5-5-5-5-5-5-5-5-5-5-5-5-5-5-5----||


  W                   +W
|------------------|---------*|
|------------------|---------*|
|-7----------------|--(7)----*|
|-7----------------|--(7)----*|
|-5----------------|--(5)----*|
Добавлено: 30.09.2013
Другие материалы по этой песне:

Страница создана 27.02.2012
http://primanota.ru/berzerker/february-chords.htm
Привет, Гость.
Предлагаем пройти революционный курс по гитаре.
Подарок от PrimaNota.Ru, забирай!