PrimaNota.ru - самый крупный в мире бесплатный архив песенных текстов, аккордов, табулатур и нот


Berurier Noir - La Mort Aux Choix - таба, видео

Регистрация Запомнить меня
Войти через:  Facebook Google Twitter Vk Yandex Mail.ru

Berurier Noir - La Mort Aux Choix - таба, видео

Печатать
Просмотров: 142
bon alors voila je tab ça pour http://acide.discutforum.com/

la mort aux choix - berurier noir ( version album macadam massacre )


1ere Partie
----------

>--------------------------<
>--------------------------<
>--------------------------<
>--------------------------<
>--------------------------<
>--3-33--3-33--3-33--3-33--<

----------
2eme Partie
----------

>------------------------------------<
>------------------------------------<
>------7-7-10107-7-----7-7-10107-7---<
>--5-5-7-7-10107-7-5-5-7-7-10107-7---<
>--5-5-5-5-8-8-5-5-5-5-5-5-8-8-5-5---<
>--3-3-------------3-3---------------<

----------
LYRICS
----------

(repeter a chaque partie)

la pendaison
mort etouffés
vertebres cassés
la guillotine
un cou tranché
dans un panier
strangulation
souffle areté
t'es asphyxié
chaise electrique
tout ligoté
cerveau brulé
un fusillé
12 balles tirées
coeur eclaté
ecartelé
membres arachés
sans bras sans pieds
et un noyer
l'eau est entrée
plus respirer
decapité
hache eguisé
une tete coupé
et la torture
tas beau crier
toute la journée
un ecorché
un enterré
un affamé
empoisonné
t'es suicidé
ou bien gazé
les beruriers
ont etranglé
une vieille mémé
la mort légale
jugée ou pas
la mort légale
finira pas

la mort, la mort !
Добавлено: 21.07.2012
Другие материалы по этой песне:
  • Аккорды и текст

Страница создана 21.07.2012
http://primanota.ru/berurier-noir/la-mort-aux-choix-chords.htm
Привет, Гость.
Предлагаем пройти революционный курс по гитаре.
Подарок от PrimaNota.Ru, забирай!