PrimaNota.ru - самый крупный в мире бесплатный архив песенных текстов, аккордов, табулатур и нот


Bert Jansch - Tinkers Blues - аккорды и текст, таба, видео

Регистрация Запомнить меня
Войти через:  Facebook Google Twitter Vk Yandex Mail.ru

Bert Jansch - Tinkers Blues - аккорды и текст, таба, видео

Печатать
Просмотров: 161
Tinkers Blues
Bert Jansch
		   Tinker's Blues                                                  Bert Jansch
Currently (1995) available on "The Gardener: Essential Bert Jansch 1965-71"
This transcription intended for free educational use only  -- Allyn Dimock

This is essentially just a fun little run with some practice in natural
harmonics at the 5th fret.  Part of Bert's genius is making a little material
go a long way...  Play measures 1-12, then repeat measures 11 and 12 a few
times, then go back and do it over again.  Starting left hand position is
2 on G string, 3 on B string.  Notes in () : natural harmonic at indicated
fret.

1
E-----------------|-----------------|-----------------|-----------------|
B-3---------3h5s7-|-7-----7---------|-3---------3h5s7-|-7-----7---------|
G---2---2s4-------|---4-------4-----|---2---2s4-------|---4-------4-----|
D-----0-------0---|----(5)------0---|-----0-------0---|-------------0---|
A-----------------|-----------------|-----------------|----(5)----------|
D-0-------0-------|-0-------0-------|-0-------0-------|-0-------0-------|
  |   |   |   |     |   |   |   |     |   |   |   |     |   |   |   |

5
E-----------------|-----------------|-----------------|-----------------|
B-3---------3h5s7-|-7-----7---------|-3---------3h5s7-|-7-----7---------|
G---2---2s4-------|---4-------4-----|---2---2s4-------|---4-------4-----|
D-----0-------0---|----(5)------0---|-----0-------0---|-------------0---|
A-----------------|-----------------|-----------------|----(5)----------|
D-0-------0-------|-0-------0-------|-0-------0-------|-0-------0-------|
  |   |   |   |     |   |   |   |     |   |   |   |     |   |   |   |

9
E-----------------|-----------------|-----------0-----|-----------------|
B-3---------3h5s7-|-5-----5---------|-7-----7---------|-5-----5---------|
G---2---2s4-------|---4-------4-----|---5-------5-----|---4-------4-----|
D-----0-------0---|-------------0---|-------------0---|-------------0---|
A-----------------|----(5)----------|----(5)----------|----(5)----------|
D-0-------0-------|-0-------0-------|-0-------0-------|-0-------0-------|
  |   |   |   |     |   |   |   |     |   |   |   |     |   |   |   |     
Добавлено: 01.09.2013
Другие материалы по этой песне:

Страница создана 22.02.2012
http://primanota.ru/bert-jansch/tinkers-blues-chords.htm
Привет, Гость.
Предлагаем пройти революционный курс по гитаре.
Подарок от PrimaNota.Ru, забирай!