PrimaNota.ru - самый крупный в мире бесплатный архив песенных текстов, аккордов, табулатур и нот


Bert Jansch - Tell Me What Is True Love - таба, видео

Регистрация Запомнить меня
Войти через:  Facebook Google Twitter Vk Yandex Mail.ru

Bert Jansch - Tell Me What Is True Love - таба, видео

Печатать
Просмотров: 134
Tabbed by Jamie Phillips (jamiephillips22@hotmail.com)

Artist: Bert Jansch
Track title: Tell Me What Is True Love?
Album: Rosemary Lane
Tuning: EADGBE

Short and sweet this one, but beautifully haunting and full of atmosphere. 
It's also really easy to play and makes for a great right hand picking 
exercise! There are are number of ways you can pick it; I prefer using my 
first two fingers, with the thumb playing the bass notes. You may prefer 
just to use your thumb and forefinger, or give the other fingers a workout 
by using various combinations. Make sure you let notes ring out as much as 
possible.

Rhythm: 4/4


  Intro:
E||----------------0---0-------------|
B||------------0-----0-----0---------|
G||--------1-----1-------1-----1-----|
D||----4-----4---------------4-----4-|
A||------2-----------------------2---|
E||--0-------------------------------|


                                                                      
E----------------0---0-------------|----------------0---0-------------|
B------------0-----0-----0---------|------------0-----0-----0---------|
G--------1-----1-------1-----1-----|--------2-----2-------2-----2-----|
D----4-----4---------------4-----4-|----4-----4---------------4-----4-|
A------2-----------------------2---|------4-----------------------4---|
E--0-------------------------------|--0-------------------------------|


                                                                      
E----------------0---0-------------|----------------0---0-------------|
B------------0-----0-----0---------|------------0-----0-----0---------|
G--------0-----0-------0-----0-----|--------1-----1-------1-----1-----|
D----4-----4---------------4-----4-|----4-----4---------------4-----4-|
A------3-----------------------3---|------2-----------------------2---|
E--0-------------------------------|--0-------------------------------|


                                    Verse:    
E----------------0---0-------------|----------------0---0-------------|
B------------0-----0-----0---------|------------0-----0-----0---------|
G--------1-----1-------1-----1-----|--------1-----1-------1-----1-----|
D----4-----4---------------4-----4-|----4-----4---------------4-----4-|
A------2-----------------------2---|------2-----------------------2---|
E--0-------------------------------|--0-------------------------------|


                                                                      
E----------------0---0-------------|----------------0---0-------------|
B------------0-----0-----0---------|------------0-----0-----0---------|
G--------2-----2-------2-----2-----|--------4-----4-------4-----4-----|
D----4-----4---------------4-----4-|----7-----7---------------7-----7-|
A------4-----------------------4---|------7-----------------------7---|
E--0-------------------------------|--0-------------------------------|


                                                                      
E----------------0---0-------------|----------------0---0-------------|
B------------0-----0-----0---------|------------7-----7-----7---------|
G--------9-----9-------9-----9-----|--------7-----7-------7-----7-----|
D----9-----9---------------9-----9-|----0-----0---------------0-----0-|
A------7-----------------------7---|------5-----------------------5---|
E--0-------------------------------|--7-------------------------------|


                                    On last verse, go to ending: 
E----------------0---0-------------|----------------0---0-------------|
B------------0-----0-----0---------|------------0-----0-----0---------|
G--------6-----6-------6-----6-----|--------0-----0-------0-----0-----|
D----7-----7---------------7-----7-|----4-----4---------------4-----4-|
A------4-----------------------4---|------3-----------------------3---|
E--0-------------------------------|--0-------------------------------|


                                                                      
E----------------0---0-------------|----------------0---0-------------|
B------------0-----0-----0---------|------------0-----0-----0---------|
G--------1-----1-------1-----1-----|--------2-----2-------2-----2-----|
D----4-----4---------------4-----4-|----4-----4---------------4-----4-|
A------2-----------------------2---|------4-----------------------4---|
E--0-------------------------------|--0-------------------------------|


                  Go back to verse: Ending:
E----------------0---0-------------|---------------------||
B------------0-----0-----0---------|---------------------||
G--------0-----0-------0-----0-----|---------------------||
D----4-----4---------------4-----4-|--------9------------||
A------3-----------------------3---|------7--------------||
E--0-------------------------------|--0------------------||
Добавлено: 28.02.2012
Другие материалы по этой песне:

Страница создана 28.02.2012
http://primanota.ru/bert-jansch/tell-me-what-is-true-love-chords.htm
Привет, Гость.
Предлагаем пройти революционный курс по гитаре.
Подарок от PrimaNota.Ru, забирай!