PrimaNota.ru - самый крупный в мире бесплатный архив песенных текстов, аккордов, табулатур и нот


Bert Jansch - Poison - текст песни, таба, видео

Регистрация Запомнить меня
Войти через:  Facebook Google Twitter Vk Yandex Mail.ru

Bert Jansch - Poison - текст песни, таба, видео

Печатать
Просмотров: 40
Авторы музыки: Bert Jansch

This is pretty close but not quite there. From what I can tell, when Bert
strums those chords, he plays some open high strings that I have not included, which makes me think
the higher strings have an alternate tuning as well. But... too bad.  


PART I

e:-----------------------------------------------------------|
B:---/6-6--------------6-------------------------------------|
G:---/7-7---5h7p5------5-------------------------------------|
D:---------------h7-------7------5--3--7-7------7-7----------|
A:-------------------------------------5-5------5-5----------|
D:0-------------------------(0)--------0-0------0-0----------|   


PART II

"ah don't you know that your creator...

e:-----------------------------------------------------------------------|
B:-------------------------------0---------------------6p5---------------|
G:-----------------------------5--------------------------h7-------------|
D:7-9-10-10-10-10-10-10-10-10-------7--7----7-9-10-10-------------7-7----|
A:5-7-8--8--8--8--8--8--8--8--------5--5----5-7-8--8--------------5-5----|
D:0---------------------------------0--0----0---------------------0-0----|


Добавлено: 02.12.2015
Другие материалы по этой песне:
  • Аккорды и текст

Страница создана 19.11.2014
http://primanota.ru/bert-jansch/poison-chords.htm
Привет, Гость.
Предлагаем пройти революционный курс по гитаре.
Подарок от PrimaNota.Ru, забирай!