PrimaNota.ru - самый крупный в мире бесплатный архив песенных текстов, аккордов, табулатур и нот


Bert Jansch - Paper Houses - таба, видео

Регистрация Запомнить меня
Войти через:  Facebook Google Twitter Vk Yandex Mail.ru

Bert Jansch - Paper Houses - таба, видео

Печатать
Просмотров: 86
Paper Houses
by Bert Jansch
From the album 'Toy Balloon'
Tuning: EADGBE (Standard)
Capo 2nd fret      h = hammer-on     p = pull-off
Each bar of tab should count 4 beats; knowing me it
probably doesn't, but the piece is easy to pick up
anyway so it shouldn't really matter. This is a really
simple tune and allows for variation and extra notes,
so don't be constrained by my tab. Cheers!
(james_calton@yahoo.com)

Intro and lines 1 to 5 of verse:

|----------------------------------------------------|
|----------------0------------1-------3p1------------|
|----------0h2-----------0------------------0--------|
|------0-------------0------------2-------------2----|
|-----------------------------0----------------------|
|---3------------------------------------------------|
 
|---------------------------------------------|
|---------------3------------------------0----|
|-----------0-------0----------------0--------|
|-------0---------------0--------2------------|
|---2------------------------3----------------|
|---------------------------------------------|
 
|--------------------------------------------------|
|-----------------0----------1-------3p1-----------|
|-----------0h2----------------------------0-------|
|-------0-------------0h2--------2-------------2---|
|----------------------------0---------------------|
|---3----------------------------------------------|
 
|--------------------------------------------|
|---------------1---------------1------------|
|-----------2-----------------------2--------|
|-------0-----------0-------0-----------0----|
|--------------------------------------------|
|---2-------------------2--------------------|
 
|--------------------------------2p0-------------|
|-----------1---------------------------0--------|
|---------------0------------2--------------2----|
|-------2----------------0-----------------------|
|---0----------------3---------------------------|
|------------------------------------------------|
 
|-----------0---3--------3--------------------|
|-------3----------------------------0--------|
|---0---------------0------------0------------|
|----------------------------0-----------0----|
|---3-----------------------------------------|
|------------------------3--------------------|
 
|---------------------------------------------|
|---------------1----------------1------------|
|-----------0------------------------2--------|
|-------2-----------2--------0-----------0----|
|---0-----------------------------------------|
|------------------------2--------------------|
        
 this hammer-on works on 4th string too
           *
|----------------------------------|
|----------------1------------0----|
|----------0h2-----------0---------|
|------0-------------0-------------|
|----------------------------------|
|--3--------------------------3----|
 
lines 6 to 8 of verse:

|--------------------------------2p0------------|
|-----------1--------------------------0--------|
|---------------0------------2-------------2----|
|-------2----------------0----------------------|
|---0----------------3--------------------------|
|-----------------------------------------------|
 
|----------0---------------------0-----------0-------|
|--------------3p0-----------1-------1-----------3---|
|------0-----------------0---------------0-----------|
|--------------------2-------------------------------|
|--------------------------------------------3---2---|
|---0------------------------------------------------|
 
|---------------------------------------------|
|---------------1----------------1------------|
|-----------0------------------------2--------|
|-------2-----------2--------0-----------0----|
|---0-----------------------------------------|
|------------------------2--------------------|
 
|--------------------------------------------|
|-----------------1------------0-------------|
|-----------0h2-----------0------------------|
|-------0-------------0----------------------|
|---------------------------------------2----|
|---3--------------------------3----3--------|
 
|-----------------------------------------------|
|-----------1--------------------3p1------------|
|---------------0----------------------2--------|
|-------2-----------2--------0-------------0----|
|---0-------------------------------------------|
|------------------------2----------------------|
 
|------------------------------------|
|-----------------1------------0-----|
|-----------0h2-----------0----------|
|-------0-------------0--------------|
|------------------------------------|
|---3--------------------------3-----|

chorus:

|---------------0---3------------2---0--------|
|----------------------------------------0----|
|-----------0---------------------------------|
|-------2--------------------0----------------|
|---3--------------------2--------------------|
|---------------------------------------------|
 
|---------------------------------------------|
|-----------1------------------------0--------|
|---------------0----------------0------------|
|-------2--------------------0-----------0----|
|---0---------------0-------------------------|
|------------------------3--------------------|
 
|-----------0---3-----------2p0------------|
|---------------------------------0--------|
|-------------------------------------0----|
|-------2---------------0------------------|
|---3---------------2----------------------|
|------------------------------------------|
 
|---------------0--------------------------------|
|-----------1-------1--------------------0-------|
|-----------------------0------------0-------0---|
|-------2------------------------2---------------|
|---0------------------------2-------------------|
|------------------------------------------------|
 
|-----------------------------------------------|
|-----------0--------------------------1--------|
|---------------0----------------0h2------------|
|-------2-----------2--------2-------------2----|
|---2--------------------0----------------------|
|-----------------------------------------------|
 
|--------------------------------------------------|
|---------------1----------------------1-----------|
|-----------2--------------------0h2-----------0---|
|-------0-----------0--------0-------------0-------|
|--------------------------------------------------|
|---2--------------------3-------------------------|
 
|---------|
|---0-----|
|---------|
|---------|
|---------|
|---3-----|

________________________________________________________________________________
     
Добавлено: 20.11.2013
Другие материалы по этой песне:
  • Аккорды и текст

Страница создана 20.11.2013
http://primanota.ru/bert-jansch/paper-houses-chords.htm
Привет, Гость.
Предлагаем пройти революционный курс по гитаре.
Подарок от PrimaNota.Ru, забирай!