PrimaNota.ru - самый крупный в мире бесплатный архив песенных текстов, аккордов, табулатур и нот


Bert Jansch - Needle Of Death - аккорды и текст, видео

Регистрация Запомнить меня
Войти через:  Facebook Google Twitter Vk Yandex Mail.ru

Bert Jansch - Needle Of Death - аккорды и текст, видео

Печатать
Просмотров: 216
Уроки эстрадного вокала в Санкт-Петербурге
Авторы музыки: Bert Jansch
Авторы текста: Bert Jansch
Needle Of Death
Bert Jansch
Needle of death by Bert Jansch
Transcribed by Dave Scott Nov 2003 (DVScott@csi.com)

Chords:
    G    Gh   G6   C   Em  D   Em9  G6h 
e|--3----3-----------------2----2h-----|
B|------------3----1-------3---------3-|
G|-------2h----------------2---------2h|
D|-----------------2----2-------2------|
A|--2---------2----3----2-------2----2-|
E|--3----3----3----3-----------------3-|

G     Gh     G6         C
When sadness fills .. heart
    Em                             D
And sorrow hides ................ free
G     Gh       G6         C
When things .. wrong .... day
    Em                              D
You fix ........................ misery

Chorus
   Em            Em9   Em
   Your .........young life
   Em9 G    G6      G6h
   Had made you ....
        G6        C      D
   To ..needle .. death 

Pick:
    G    Gh        G6       C
e|--------------------------------------|
B|----------0------3--------1-------1---|
G|-------2h------------0---------0------|
D|-----0-----0-----0-----0-----0------0-|
A|--------------------------3-----3-----|
E|--3-----3-----3-----3-----------------|

     
Добавлено: 23.08.2013
Другие материалы по этой песне:

Страница создана 05.04.2012
http://primanota.ru/bert-jansch/needle-of-death-chords.htm
Привет, Гость.
Предлагаем пройти революционный курс по гитаре.
Подарок от PrimaNota.Ru, забирай!