PrimaNota.ru - самый крупный в мире бесплатный архив песенных текстов, аккордов, табулатур и нот


Bert Jansch - From The Inside - таба, видео

Регистрация Запомнить меня
Войти через:  Facebook Google Twitter Vk Yandex Mail.ru

Bert Jansch - From The Inside - таба, видео

Печатать
Просмотров: 91
Artist: Bert Jansch
Track title: From the Inside
Album: From the Outside
Tuning: EADGBE
Capo: None


This is a relatively simple piece from one
of Bert's neglected recent albums. I can recommend
it highly even though it strays little into
new territory for Bert.

Notes: t=tenth fret
          e=eleventh fret
          /=slide up to note
          h=hammer on
          p=pull off


Main bit:

E-|---------|--------0------|-----0-------|
B-|-------0-|-1--0h1---3----|-----0-------|
G-|-----0---|-2-----------0-|---0---0---0-|
D-|---4-----|---------------|-2-------2---|
A-|---------|-0--------2----|-------------|
E-|-3-------|---------------|-------------|

 

|------------3-------|-----------0h2p0h2-0h2-2---| 
|------------2-------|---------------------------|
|-----0----0---0---0-|-----0---2---------0h2---2-|
|-2/4----1-------1---|-2/4---0---0-----------0---|
|--------------------|---------------------------|
|--------------------|---------------------------|


              (A)
|-------3---|------3---3-----3----|      
|-------1---|------0---0h2---0----|       
|-----0---0-|*-------0-----0---0-*|      
|-0h2-------|*---0-----0h1---0---*|     
|-----------|---------------------|    
|-----------|--3------------------|
            

Bit leading to break:

|------------------|
|-------0--1--3----|
|----2-----------0-|
|------------------|
|----------0--2----|
|-3--1--3----------|


Break (play three times then again up to B,
then bit marked C Repeat A once, then main bit again):

                            (B)           (C)
|------5-7-8-7-5---|-----t--------7/5--| |-------2p0--|
|------5-7-8-7-5-5-|-----t--------7/5--| |-------3----|
|*---5-5-7-9-7-5---|---e---e---e--7/5-*| |----2-------|
|*-----------------|-0-------0--------*| |-0----------|
|--0---------------|-------------------| |------------|
|------------------|-------------------| |------------|

Piece fades out on bit A with a few slight variations.

Tabbed by James Calton. Email: james_calton@yahoo.com
     
I declare this is all my own work.       
       


________________________________________________________________________________
     
Добавлено: 12.11.2013
Другие материалы по этой песне:

Страница создана 10.06.2012
http://primanota.ru/bert-jansch/from-the-inside-chords.htm
Привет, Гость.
Предлагаем пройти революционный курс по гитаре.
Подарок от PrimaNota.Ru, забирай!