PrimaNota.ru - самый крупный в мире бесплатный архив песенных текстов, аккордов, табулатур и нот


Bert Jansch - Alices Wonderland - таба, видео

Регистрация Запомнить меня
Войти через:  Facebook Google Twitter Vk Yandex Mail.ru

Bert Jansch - Alices Wonderland - таба, видео

Печатать
Просмотров: 151
Уроки эстрадного вокала в Санкт-Петербурге
Авторы музыки: Charles Mingus

-----------------------------------------------------------------
                Alice's Wonderland - Bert Jansch
-----------------------------------------------------------------

Tabbed By : Aeonoptic
e-mail: aeonoptic@gmail.com

Tuning: EADGBe

Capo 3

  E7             C#dim(add11)    F#m7                A          A6            D(b5,add9) Ebm6 Em6
E|---------0---0|---------------|-------------------|------0------------2----|------0--------------|
B|--------------|------7-5------|--5-3--------------|----2------------2---5/7|----7----------------|
G|-----0h1---1--|-----6----6----|-2----2h4-----4/5-4|---2------------2-------|---7-------5----6-4--|
D|----0---------|----5-------5-4|4------------2-----|--2------------2--------|--6--------4---5----7|
A|---2----------|2/4------------|-------------------|0-------3/4---0---------|5--------6---7-------|
E|0-------------|---------------|----------0--------|------------0-----------|---------------------|

  D6                      G(add9)   E+(add9) G(add9) E+(add9) Dmaj9   G#m7/B    C+(add9)    
E|----------0------------|-----------------0|---------------0|------0-----2----|-----------|
B|--------3---5/7-----7-7|---------------7--|-------------7--|----7------3--3--|------3-3--|
G|-------4-----------7---|-----4--------5---|-----4------5---|--6-------1-----1|-----1-----|
D|3/4---4-----------6----|----5--7-----6----|----5--7---6----|-4---------------|----2-----2|
A|----5-----------7------|---0------7-------|---0-----7------|5-------2--------|3--3-------|
E|-----------------------|0-----------------|0---------------|-----------------|-----------|

  Em6         Am6       Fmaj7     E           Em6         Am6       Fmaj7     E
E|-----------|---------|---------|-----------|-----------|---------|---------|---------|
B|------0----|---------|----1----|--------0--|------0----|---------|----1----|--------0|
G|----4---2p0|----5-4h5|---2-----|----0h1---2|----4---2p0|----5-4h5|---2-----|----0h1--|
D|---2-------|---4-----|--2------|---2-------|---2-------|---4-----|--2------|---2-----|
A|--4--------|--3------|------5p3|--2--------|--4--------|--3------|------5p3|--2------|
E|0----------|5--------|1--------|0----------|0----------|5--------|1--------|0--------|

  Am                                                                      G7sus4  Fmaj7 G7sus4  Fmaj7
E|-----------|----------|--------|----------|----------|--------|--------|-------------|-------------|
B|-----------|----------|--------|----------|----------|--------|--------|-------------|-------------|
G|-----------|----------|--------|----------|----------|--2----2|--------|--------0----|--------0----|
D|--0-h2-0---|--2----2--|--2----2|--0-h2-0--|--2----2--|--2----2|--2----2|----0h2---2--|----0h2---2--|
A|3------5---|--3----3--|--3----3|3---------|--3----3--|--3----3|--3----3|--3---------3|--3---------3|
E|----------3|5-5--5-5-5|5-5--5-5|5--------3|5-5--5-5-5|5-5--5-5|5-5--5-5|3---------1--|3---------1--|

  G6sus4  Fmaj7
E|-------------|
B|-------------|
G|--------0----|
D|----0h2---2--|
A|--3---------3|
E|3---------1--|

  G6sus4     Am         Am    F          Am          G6sus4                        E5      Am
E|----------|----------|----------------|-----------|---------|---------|---------|-------|-------------|
B|----------|----------|----------------|-----------|---------|------0--|---------|-------|-------------|
G|--------0-|----------|----------------|-----------|--------0|----4----|----2----|----0--|-------------|
D|----0h2---|--0h2-0---|------0-2--2-0--|0h2---1p0--|----0h2--|---2-----|---2--2--|---2--2|--0-h2-0-----|
A|--3-------|3-----5---|0---3----------3|----------3|--3------|--3-----0|--3-----3|--2----|--3----5-----|
E|3---------|5--------3|--5---1-1--1-1--|5---4------|3--------|3--------|3--------|0------|5---------3-3|

  Am Em7 Fmaj7     Am Em7 Fmaj7     Am   Em7 Fmaj7       Am7b5/G       Am     Em6          Am6
E|------|---------|------|---------|--------|-----------|-------------|-------|-----------|---------|
B|------|---------|------|---------|--------|-----------|-------------|-------|------0----|---------|
G|--2--0|---------|--2--0|---------|-----2-0|-----------|--3-----0----|-------|----4---2p0|----5-4h5|
D|--2--0|--0h2-0--|--2--0|--0h2-0--|-----2-0|--0h2-0----|--1p0--------|--2---2|---2-------|---4-----|
A|--3--2|3-----5--|--3--2|3-----5--|-----3-2|3-----5-5--|0-----3-1p0--|--3---3|--4--------|--3------|
E|5----0|1-------3|x----0|1-------3|h5-5---0|1---------3|------------3|5---5--|0----------|5--------|

  Fmaj7     E           Em6         Am6       Fmaj7
E|---------|-----------|-----------|---------|---------|
B|----1----|--------0--|------0----|---------|----1----|
G|---2-----|----0h1---2|----4---2p0|----5-4h5|---2-----|
D|--2------|---2-------|---2-------|---4-----|--2------|
A|------5p3|--2--------|--4--------|--3------|------5p3|
E|1--------|0----------|0----------|5--------|1--------|

  E7             C#dim(add11)    F#m7                A          A6            D(b5,add9) Ebm6 Em6
E|---------0---0|---------------|-------------------|------0------------2----|------0--------------|
B|--------------|------7-5------|--5-3--------------|----2------------2---5/7|----7----------------|
G|-----0h1---1--|-----6----6----|-2----2h4-----4/5-4|---2------------2-------|---7-------5----6-4--|
D|----0---------|----5-------5-4|4------------2-----|--2------------2--------|--6--------4---5----7|
A|---2----------|2/4------------|-------------------|0-------3/4---0---------|5--------6---7-------|
E|0-------------|---------------|----------0--------|------------0-----------|---------------------|


  D6                      G(add9)   E+(add9) G(add9) E+(add9) G(add9) E+(add9)    
E|----------0------------|-----------------0|---------------0|-------------|
B|--------3---5/7-----7-7|---------------7--|-------------7--|-----------7~|
G|-------4-----------7---|-----4--------5---|-----4------5---|--4-------5--|
D|3/4---4-----------6----|----5--7-----6----|----5--7---6----|-5--7----6---|
A|----5-----------7------|---0------7-------|---0-----7------|0------7-----|
E|-----------------------|0-----------------|0---------------|-------------|

| /  slide up
| \  slide down
| h  hammer-on
| p  pull-off
| ~  vibrato
| +  harmonic
| x  Mute note
Добавлено: 08.06.2016
Другие материалы по этой песне:

Страница создана 28.05.2012
http://primanota.ru/bert-jansch/alices-wonderland-chords.htm
Привет, Гость.
Предлагаем пройти революционный курс по гитаре.
Подарок от PrimaNota.Ru, забирай!