PrimaNota.ru - самый крупный в мире бесплатный архив песенных текстов, аккордов, табулатур и нот


Bersuit Vergarabat - Mi Caramelo - таба, видео

Регистрация Запомнить меня
Войти через:  Facebook Google Twitter Vk Yandex Mail.ru

Bersuit Vergarabat - Mi Caramelo - таба, видео

Печатать
Просмотров: 55
INTRO:


E--0----------|---------|-----------|------0----------|
B----3-1-0-3--|------3--|--2-----2--|--1--------------|
G-------------|----0----|------0----|----0--(0)-------|
D-------------|---------|--1-1------|-----------------|
A--3-2-0---2--|--2------|-----------|--0--------------|
e--------3----|---------|-----------|-----------------|

E--0----------|---------|-----------|------0----------|
B----3-1-0-3--|------3--|--2---2----|--1--------------|
G-------------|----0----|----0---0--|----0--(0)-------|
D-------------|---------|--1--------|-----------------|
A--3-2-0---2--|--2------|-----------|--0--------------|
e--------3----|---------|-----------|-----------------|

E--0----------|---------|-----------|------3--3---3---|
B----3-1-0-3--|------3--|--2-----2--|--1-----1--1---1-|
G-------------|----0----|------0----|----0------------|
D-------------|---------|--1-1------|-----------------|
A--3-2-0---2--|--2------|-----------|-----------------|
e--------3----|---------|-----------|--0--------------|


E--3---3----2-----------------------------------------||
B--------1------1-------------------------------------||
G----0--------2---------------------------------------||
D--0--------0-----------------------------------------||
A-----------------------------------------------------||
e-----------------------------------------------------||


PRIMER VERSO:

               G    G7   G6    G(b6)
E------------------------------------------------------|
B-----------------0----0----0----0---------------------|
G----------------0-0--0-0--0-0--0-0--------------------|
D--------------------3----2----1-----------------------|
A------------------------------------------------------|
e---------------3--------------------------------------|
  Que linda que estás, sos un caramelo

   Em        A7        Am7 Dsus4 D7
E---------------------|-----3----2---2/3---------------|
B------0-----2-----2--|-1------------------------------|
G----0---0-------0----|---0--(0)---2-------------------|
D--2-----------2------|----------0---------------------|
A------------0--------|-0------------------------------|
e---------------------|--------------------------------|
   Te veo en el recreo y me vuelvo loco

                G          Am7  G/B   C(add9)
E------------------------|----------|------------------|
B---------------0------0-|-1----3---|-5---5------------|
G--------------------0---|---0----0-|---0---0----------|
D------------------0-----|----------|------------------|
A------------------------|-0----2---|-3----------------|
e---------------3--------|----------|------------------|
      Todas las cosas que me gustan   tienen tu cara

  Cm(add9)  G/B      Bb°
E------------------------------------------------------|
B--4---4----3---3----2---2-----------------------------|
G----0---0----0---0----0---0---------------------------|
D--------------------1---------------------------------|
A--3--------2------------------------------------------|
e------------------------------------------------------|
            y espero a los asaltos,

   Am7 Dsus4 D7             G      G7        G6
E------3-----2----2/3--|-----------------------|-------|
B--1-------------------|--------0-------0------|---0---|
G----0--(0)-----2------|------0---0---0---0----|-----0-|
D------------0---------|------------3--------2-|-------|
A--0-------------------|-----------------------|-------|
e----------------------|-----3-----------------|-------|
  Así juego a la botellita con vos

   G(b6)      G
E----------|-------------------------------------------|
B------0---|------0-------0---------3------------------|
G----0---0-|----------0---------0-------0--------------|
D--1-------|----0---0---0---0-0---4---4----------------|
A----------|-------------------------------------------|
e----------|--3----------------------------------------|
   Mi bomboncito


SEGUNDO VERSO:

           G
E-----------------------------------------------------|
B----------0-----0------------------------------------|
G--------------0--------------------------------------|
D------------0----------------------------------------|
A-----------------------------------------------------|
e----------3------------------------------------------|
   Que excitante que estás

   An7  G/B    C(add9) Cm(add9)
E-----------|-----------------------------------------|
B--1----3---|--5-----5/4---4--------------------------|
G----0----0-|----0-------0---0------------------------|
D-----------|-----------------------------------------|
A--0----2---|--3---3---3------------------------------|
e-----------|-----------------------------------------|
      Tendrías que saberlo

     G/B      Bb°        Am7 Dsus4 D7
E----------------------|------3----2---2/3------------|
B----3---3----2---2----|--1---------------------------|
G------0---0----0---0--|----0--(0)---2----------------|
D-------------1--------|-----------0------------------|
A----2-----------------|--0---------------------------|
e----------------------|------------------------------|
  Esa cola es la manzana más buscada

               G         Am7 G/B   C(add9)  Cm(add9)
E----------------------|---------|--------------------|
B--------------0-----0-|-1---3---|-5---5----4---4-----|
G------------------0---|---0---0-|---0---0----0---0---|
D----------------0-----|---------|--------------------|
A----------------------|-0---2---|-3--------3---------|
e--------------3-------|---------|--------------------|
  Y esos senos             el alimento de mi creación

       G/B      Bb°
E-----------------------------------------------------|
B------3---3----2---2---------------------------------|
G--------0---0----0---0-------------------------------|
D---------------1-------------------------------------|
A------2----------------------------------------------|
e-----------------------------------------------------|
   Quisiera arrancarte un día

  Am7 Dsus4 D7            G
E------3----2---2/3-|---------------------------------|
B--1----------------|-----0-------0-------------------|
G----0--(0)---2-----|---------0-------0---------------|
D-----------0-------|-------0---0---0---0-------------|
A--0----------------|---------------------------------|
e-------------------|-----3-------3-------------------|
  y morirme en un telo con vos

   C                D/F#
E-----------------------------------------------------|
B--1-------1----------------0---------------3---------|
G------0-------0--------0-------0-----2---2-----2-----|
D----2---2---2---2----2---2---2---2-----0-----0---0---|
A--0-------0------------------------------------------|
e-------------------0---------------2-----------------|
           O quizás en un auto

Tercer Verso:  V [abajo] ; A [arriba] (rasgueo)

                      V A V    V  V  V  A V
E---------------------3-3-3--|-0--0--0-(0)0------------|
B-------0-------------0-0-0--|-1--1--1-(1)1------------|
G-----------0---------0-0-0--|-0--0--0-(0)0------------|
D---------0---0-------0-0-0--|-2--2--2----2------------|
A---------------------2-2-2--|-3--3--3----3------------|
e-------3-------------3-3-3--|-------------------------|
        G                         C
  Han pasado cinco años,      asumiste las cosas

       V  V    V A V     V  V A    V A V
E------0--0-|--0-0-0--|--0--0-0-|--2-2-2---------------|
B------0--0-|--2-2-2--|--1--1-1-|--1-1-1---------------|
G------0--0-|--2-2-2--|--0--0-0-|--2-2-2---------------|
D------2--2-|--2-2-2--|--2--2-2-|--0-0-0---------------|
A------2--2-|--0-0-0--|--0--0-0-|----------------------|
e------0--0-|---------|---------|----------------------|
       Em                      A  Am7           D7
  Hace tiempo que estoy buscando mi verdadero yo

     V  A V
E-----3--3-3---|-----|---------------------------------|
B-----0--0-0---|-----|---------------------------------|
G-----0--0-0---|-----|---------------------------------|
D--------------|---0-|---------------------------------|
A--------------|---2-|---------------------------------|
e--------------|---3-|---------------------------------|
            G
  Hay una especie de simbiosis,

       V     V     V     V
E------0--|--0--|--2--|--2--|--------------------------|
B------1--|--1--|--3--|--3--|--------------------------|
G------0--|--0--|--4--|--4--|--------------------------|
D------2--|--2--|--4--|--4--|--------------------------|
A------3--|--3--|--2--|--2--|--------------------------|
e---------|-----|-----|-----|--------------------------|
       C           B
   Lo dijo mi psicóloga

        V   V A    A V A
E-------0---0-0--|-0-0-0-------------------------------|
B-------0---0-0--|-2-2-2-------------------------------|
G-------0---0-0--|-2-2-2-------------------------------|
D-------2---2-2--|-2-2-2-------------------------------|
A-------2---2-2--|-0-0-0-------------------------------|
e-------0---0-0--|-------------------------------------|
        Em          A
   Haría bien A LA terapia  ¡Oh!
   Am7      D7
E------0--------2/3------------------------------------|
B--1--------2------------------------------------------|
G----0---0----0----------------------------------------|
D-----------0------------------------------------------|
A--0---------------------------------------------------|
e------------------------------------------------------|
            Alejarme un tiempo
   G               C                   Dsus4
E--------------3-|-------------------|-----3---3---3---|
B--0-----0-------|-1---1---------1---|-----------------|
G------0-----0---|-------------------|---0---0---0---0-|
D----0-----0-----|---2---2---2p3---2-|-----------------|
A----------------|-3-------3---------|-0---------------|
e--3-------------|-------------------|-----------------|
                          Unos setenta años

            D7
E------3----2---2/3------------------------------------|
B------------------------------------------------------|
G----0--(0)---0----------------------------------------|
D--2--------0------------------------------------------|
A------------------------------------------------------|
e------------------------------------------------------|


Cuarto Verso:

         G         Am7  G/B
E----------------|-------------------------------------|
B--------0-----0-|--1---3------------------------------|
G------------0---|----0---0----------------------------|
D----------0-----|-------------------------------------|
A----------------|--0---2------------------------------|
e--------3-------|-------------------------------------|
  Como estás querida

       C(add9)        Bb°
E---------------|-----2--------------------------------|
B------5--------|--------------------------------------|
G---------------|--------------------------------------|
D---------------|-----1--------------------------------|
A------3--------|--------------------------------------|
e---------------|--------------------------------------|
  Tengo esposa e hijos
               G           G(inv)
E--------------3----3--|---2---------------------------|
B----------------------|--------3----------------------|
G----------------------|------0---0--------------------|
D----------------------|-------------------------------|
A--------------2----2--|---2---------------------------|
e----------------------|-------------------------------|
   De vez en cuando hablo con ella

           C(add9)  Cm(add)
E----------0---0----0----------------------------------|
B-----------------------4------------------------------|
G------------0---0----0---0----------------------------|
D------------------------------------------------------|
A----------4--------3----------------------------------|
e------------------------------------------------------|
  Y hasta hago el amor

              G/B      Bb°       G
E------------------------------|-----3---3---3---------|
B-------------3---3----2---2---|-----------------------|
G---------------0---0----0---0-|---0---0---0---0-------|
D----------------------1-------|-----------------------|
A-------------2----------------|-----------------------|
e------------------------------|-3---------------------|
   No es que quiera molestarte, pero me es imprescindible

     Em                                   G
E--------------------------------------------------------|
B--------0-------0----------0-------3------0-----0-----0-|
G------0---0---0---0------0-------0------------0-----0---|
D----2-------0----------2-------4------------0-----0-----|
A---------------------4-------5--------------------------|
e------------------------------------------3-------------|
   Sentarme en un café     y soñar     un poco


  C                     G             G(inv)
E--------------------|------3---3---3------2-------2----|
B--1---1---------1---|-------------------3---3---3---3--|
G--------------------|----0---0---0---0-----------------|
D----2---2---2p3---2-|----------------------------------|
A--3-------3---------|------------------2------2--------|
e--------------------|---0------------------------------|
             Y tal vez amarnos

E------7---7---7----|----------7--|--5------------------|
B--5----------------|------4------|--5------------------|
G----5---5---5--(5)-|----5---5----|--5------------------|
D-------------------|--4----------|--5------------------|
A--0----------------|-------------|---------------------|
e-------------------|-------------|---------------------|


Quinto Verso:

          G                C
E-----------------------|-------------------------------|
B---------0-----0-----0-|--1-----1-----1----------------|
G-------------0-----0---|------0-----0------------------|
D-----------0-----0-----|----2-----2--------------------|
A-----------------------|--3----------------------------|
e---------3-------------|-------------------------------|
   Y ha pasado mi hora, quién robó mis años

           Em      G       C          G
E------------------------------------------------------|
B--------------0-------0-----------------3-------------|
G------------0---0---0---0------0------0---0-----------|
D----------2-------0----------2---2--0-----------------|
A---------------------------3--------------------------|
e------------------------------------------------------|
   Cambio a toda esta familia por un segundo con vos

          G        Am7  G/B              Cm(add9)
E-----------------|---------|---0---0------------------|
B---------0-----0-|-1---3---|------------4---4---------|
G-------------0---|---0---0-|-----0---0----0---0-------|
D-----------0-----|---------|--------------------------|
A-----------------|-0---2---|---3--------3-------------|
e---------3-------|---------|--------------------------|
   Si te veo ahora,         aunque termine en hospicio

    G/B      Bb°       Am7                     G/B
E--------------------|-----0-----|-0---------|---------|
B---3---3----2---2---|-1---------|---3-1-0-3-|-----3---|
G-----0---0----0---0-|---0--(0)--|-----------|---0-----|
D------------1-------|-----------|-----------|---------|
A---2----------------|-0---------|-3-2-0---2-|-2-------|
e--------------------|-----------|-------3---|---------|
   Tomo una botella     y juego a la botellita con vos

   Bb°      Am7 Dsus4         D7    G
E----------|-----3---|--3--|--2--|--3-----------------||
B--2-----2-|-1-------|--1--|--1--|--0-----------------||
G------0---|---0--(0)|--2--|--2--|--0-----------------||
D--1--1----|---------|--0--|--0--|--0-----------------||
A----------|-0-------|-----|-----|--2-----------------||
e----------|---------|-----|-----|--3-----------------||
Добавлено: 07.08.2015
Другие материалы по этой песне:

Страница создана 20.04.2012
http://primanota.ru/bersuit-vergarabat/mi-caramelo-chords.htm
Привет, Гость.
Предлагаем пройти революционный курс по гитаре.
Подарок от PrimaNota.Ru, забирай!