PrimaNota.ru - самый крупный в мире бесплатный архив песенных текстов, аккордов, табулатур и нот


Bersuit Vergarabat - El Tiempo No Para - текст песни, таба, видео

Регистрация Запомнить меня
Войти через:  Facebook Google Twitter Vk Yandex Mail.ru

Bersuit Vergarabat - El Tiempo No Para - текст песни, таба, видео

Печатать
Просмотров: 227
Уроки эстрадного вокала в Санкт-Петербурге
EL TIEMPO NO PARA (versiónc en vivo)
 BERSUIT VERGARABAT (duración 5:12)

AUTORES: GUROVICH - DEL BUSTO

   ARREGLO 1      ARREGLO 2       ARREGLO 3        ARREGLO 4
e--------------|--------------|----------------|---------------|
B--------------|--------------|----------------|---------------|
G--------------|--------------|----------------|---------------|
D--------------|-----------1/2|---0h2--0-------|---------------|
A--3--2--0-----|--0--2--3-----|-----------2--0-|---3--2--0-----|
E-----------3--|--------------|----------------|------------2--|


BAJADA 1

     Em    B5   D5
e-----0----X-----X---|
B-----0----X-----X---|
G-----0----4-----7---|
D-----2----4-----7---|
A-----2----2-----5---|
E-----0----X-----X---|
  ♪♪  ♪   ♪

INTRODUCCIÓN:
                          TREM             D         B            C
e--3---3-----------------------------------2-------------------------3--|
B—-3h5-3--------------3-----1-------1h3------3--------4------------5----|
G---------4p2h0—-2/4--------2---0h2-------2-------------4---------------|
D---------------------------------------0-----------4-------------------|
A-----------------------0----------------------0-2--------------3-------|
E-----------------------------------------------------------------------|


               G   BEND                      Am
e-----------------------------------------------------------------------|
B--3p5h3--------3---3------------------------1----1p0-------------------|
G--------5h4---0--X-2----0h2p0h2p0h2-----------2-------2----------------|
D------------------------------------------2------------2---------------|
A----------------------------------------0----------------0p2p3p4-------|
E------------3----------------------------------------------------------|


     D         B7
e-----2-----------------------8---8-------12—12/X-----------------------|
B-------3--------4--------------8---------------------------------------|
G-------------------2--0—5/9--------9/12--------------------------------|
D--0------0-----4-------------------------------------------------------|
A-------------2---------------------------------------------------------|
E-----------------------------------------------------------------------|

   G                           Am
   Y tu cabeza está llena de ratas,
                            D(1/2)           B7 (1/2)        C
    te compraste las acciones, de esta farsa, y el tiempo no para.

    G                                 Am
    Yo veo al futuro repetir el pasado,
                           D             B7                C    ARREGLO 1
   Veo un museo de grandes, novedades y el tiempo no para, no para, no, no!

    Em                                          Am
    Disparo contra el sol con la fuerza del ocaso,
                                 D (D9 ARPEGIADO)
    mi ametralladora está llena de magias,
              Em
    pero soy, solo un hombre más.

    Em
    Cansado de correr en la dirección contraria,
Am                                                D
    sin podio de llegada y mi amor, me corta la cara,
                           Em
    porque soy sólo un hombre más.

       Em
     Pero si pensás que estoy derrotado,
Am
     quiero que sepas que me la sigo jugando,
 D                                     Em
     porque el tiempo, el tiempo no para.

      Em
      Y Unos días sí, otros no,
        ARREGLO 2                    D
     estoy sobreviviendo sin un rasguñón,
                                 Em  ARREGLO 3
     por la caridad de quien me detesta.


 G                                Am
    Y tu cabeza está llena de ratas,
                             D           B7
    te compraste las acciones de esta farsa,
                     C
    y el tiempo no para.

     G                             Am
     Yo veo el futuro repetir el pasado,
                           D
     veo un museo de grandes, novedades
B7                   C        ARREGLO 1
     y el tiempo no para, no para, no.

        Em
e-----0---------------------|
B-----0---------------------|
G-----0---------------—-----| X4
D--2--2---------------------|
A--2------------------------|
E--0------3-3-3-2-2-2-0-----|


     Yo no tengo fechas para recordar,
Am
     mis días se gastan de par en par
D                            Em
     buscando un sentido, a todo esto.

      Em
      Las noches de frío es mejor no nacer,
Am                                    D
      las de calor se escoje matar o morir,
                           Em   BAJADA 1
      y así nos hacemos Argentinos!

        Em
     Nos tildan de ladrones, maricas, faloperos,
      ARREGLO 2
      y ellos sumergieron un país entero,
      D              Em    ARREGLO 3
      pues así se roban mas dinero.

          (Portugués)
G                                Am
      Y tu cabeza está llena de ratas,
                                        D
      te compraste las acciones de esta farsa,
B7                     C
      y el tiempo no para.

       G                             Am
      Yo veo el futuro repetir el pasado,
                          D          B7
      veo un museo de grandes, novedades
                   C            ARREGLO 4
      y el tiempo no para, no para, no.


BASE SOLO GUITARRA (3:45)


 ||   G    |    Am   |  D   B7  |    C      |

 ||  Em    |    Am   |  D   B7  |    C      |


SOLO GUITARRA
E-------------------10--------------------------|
B--10b12r10-8-10b12----12r10-----8-10-8------8--|
G------------------------------------9----8/9---|
D-----------------------------------------------|
A-----------------------------------------------|
E-----------------------------------------------|

E--------------------------------------------------------|
B--------------------------------------------------------|
G----7----------------------------------------7-7-9-9v---|
D-7h9-7p5--7p(5)-7p(5)-7p(5)-7p(5)-7p(5)---7/9-----------|
A---------------7-----7-----7-----7-----7----------------|
E--------------------------------------------------------|

E------12--14--15---17b19-17b(19)-17b119-17p15--|
B-11/12--12--12--12-----------------------------|
G-----------------------------------------------|
D-----------------------------------------------|
A-----------------------------------------------|
E-----------------------------------------------|


E----------------------------------------------------------------------|
B----17/12—12-15p(12)—-12-15p(12)--12-15p(12)---12-15p(12)--12-15p(12)-|
G----------------------------------------------------------------------|
D----------------------------------------------------------------------|
A----------------------------------------------------------------------|
E----------------------------------------------------------------------|


E----------------------------------|
B-12h15-12h15-12h15-12h15—15b------|
G----------------------------------|
D----------------------------------|
A----------------------------------|
E----------------------------------|

        Em
     Y Unos días sí, otros no,
      ARREGLO 2                         D
     estoy sobreviviendo sin un rasguñón,
                              Em    ARREGLO 3
     por la caridad de quien me detesta.


        G                        Am
      Y tu cabeza está llena de ratas,
                                 D         B7
      te compraste las acciones de esta farsa,
                     C
      y el tiempo no para.

   G                                  Am
      Yo veo el futuro repetir el pasado,
                          D           B7
      veo un museo de grandes, novedades
                    C          ARREGLO 1
      y el tiempo no para, no para, no.

       Em
e-----0---------------------|
B-----0---------------------|
G-----0---------------—-----| X4
D--2--2---------------------|
A--2------------------------|
E--0------3-3-3-2-2-2-0-----|

E5

                 FIN

REFERENCIAS
sl o / = slide
h = hammer
p = pull off


COMENTARIOS O DUDAS: tomasguro@hotmail.com ;  juanka_rock@hotmail.com
Добавлено: 21.03.2012
Другие материалы по этой песне:

Страница создана 19.03.2012
http://primanota.ru/bersuit-vergarabat/el-tiempo-no-para-chords.htm
Привет, Гость.
Предлагаем пройти революционный курс по гитаре.
Подарок от PrimaNota.Ru, забирай!