PrimaNota.ru - самый крупный в мире бесплатный архив песенных текстов, аккордов, табулатур и нот


Berserker - Attraktivität - аккорды и текст, видео

Регистрация Запомнить меня
Войти через:  Facebook Google Twitter Vk Yandex Mail.ru

Berserker - Attraktivität - аккорды и текст, видео

Печатать
Просмотров: 32
Attraktivität
Berserker
Tempo = 305 bpm (*Für die Spielweise der 2. Gitarre einfach mal das Lied öfters hören)

Gitarre 1:

   C#     A     E     H
e|-----|-----|-----|-----|
B|-----|-----|-----|-----|
G|--6--|-----|--9--|-----|
D|--6--|--7--|--9--|--9--|
A|--4--|--7--|--7--|--9--|
E|-----|--5--|-----|--7--|

Intro: C# / A / E / H / C# / A / H / H  [2x]

Gitarre 2 (Intro/ Kehrreim*):

e|----------|----------|----------|----------|----------|----------|----------|----------|
B|--5--4-2--|--5--4-2--|--5--4-2--|--7--5-4--|--5--4-2--|--5--4-2--|----------|--2-------|
G|----------|----------|----------|----------|----------|----------|---4------|-----4----|
D|----------|----------|----------|----------|----------|----------|----------|----------|
A|----------|----------|----------|----------|----------|----------|----------|----------|
E|----------|----------|----------|----------|----------|----------|----------|----------|

Gitarre 2 (Strophe):

e|----------|----------|----------|----------|----------|----------|----------|----------|
B|--5---4---|--7--5-4--|--5---4---|--7--5-4--|--5---4---|--7--5-4--|--9---7---|--5---7---|
G|----------|----------|----------|----------|----------|----------|----------|----------|
D|----------|----------|----------|----------|----------|----------|----------|----------|
A|----------|----------|----------|----------|----------|----------|----------|----------|
E|----------|----------|----------|----------|----------|----------|----------|----------|

Strophe 1:
C#            A             E           H
Das Leben ist schmerzvoll, das muss es sein.
C#                      A         H
Man kann es sich nicht erziehen. Stell dich darauf ein.
C#            A             E           H
Ob alt oder jung und ob du dick bist oder dünn
C#                   A     H
Das Leben verläuft anders, als man es will.

Kehrreim:
A                   H       E         C#          A           H           C#
Der Glanz trübt den Schein, von dem was man ist. Wer zeigt heut' schon gern' sein wahres Ich.
A             H          E             C#       A          H           C#
Wir lügen als Feigheit, ihr habt euch verkauft. Ihr seid doch nur noch lächerlich.

Strophe 2:
C#            A        E         H
Attraktivität liegt im Auge des Betrachters,
C#           A              H
und gibt es doch nur Preis, was man ist.
C#              A             E           H
Schönheitsideale sind doch keine besseren Menschen.
C#                A           H
Sieh in ihr Herz, was du davon bist.

Kehrreim:
A                   H       E         C#          A           H           C#
Der Glanz trübt den Schein, von dem was man ist. Wer zeigt heut' schon gern' sein wahres Ich.
A             H          E             C#       A          H           C#
Wir lügen als Feigheit, ihr habt euch verkauft. Ihr seid doch nur noch lächerlich.


Solo: 

C# / A / E / H / C# / A / H / H  [2x]
A / H / E / C# / A / H / C# / C# [2x]

Strophe 3:
C#            A        E           H
Egal wo man hinsieht - in welche Schicht.
C#                 A         H
Der Große diktiert stets den Klein'
C#            A      E             H
Willst du es ändern, dann schrei es raus:
C#              A           H
Stell dich dann ganz anders ein.

Kehrreim:
A                   H       E         C#          A           H           C#
Der Glanz ist jetzt Schein. Du bist was du bist. Du zeigst jetzt der Welt dein wahres Ich.
A             H          E             C#       A          H           C#
Mehr Freiheit als Lügen. Du hast es geschafft. Sei stolz drauf und bleib wie du bist .
A                 H       E         C#          A           H           C#
Der Glanz ist der Schein. Du bist was du bist. Du zeigst jetzt der Welt dein wahres Ich.
A             H          E             C#       A          H           C#
Mehr Freiheit als Lügen. Du hast es geschafft. Sei stolz drauf und sei es für dich.
Добавлено: 03.04.2016
Другие материалы по этой песне:
  • Аккорды и текст

Страница создана 03.04.2016
http://primanota.ru/berserker/attraktivitat-chords.htm
Привет, Гость.
Предлагаем пройти революционный курс по гитаре.
Подарок от PrimaNota.Ru, забирай!