PrimaNota.ru - самый крупный в мире бесплатный архив песенных текстов, аккордов, табулатур и нот


Berryz Koubou - Rival - таба, видео

Регистрация Запомнить меня
Войти через:  Facebook Google Twitter Vk Yandex Mail.ru

Berryz Koubou - Rival - таба, видео

Печатать
Просмотров: 109
Уроки эстрадного вокала в Санкт-Петербурге
Rival
by Berryz Kobo
tabbed by manOutOfTime
Key: D

C#5/5+  x476xx
D#5/5+  x698xx

---------------0x--------------|----------------------------------------------|
-3-----3---1-----------1---1-2-|----------------------------------------------|
-------------2-----2x----2-----|----------------------------------------------|
---3-4-------------------------|----------------------------------------------|
-------------------------------|----------------------------------------------|
-------------------------------|---x4-----------------------------------------|
Go! Go! Fight!
Go! Go! Fight!

D       C#5/5+  Bm
hitotsu futatsu ookiku mawase
Em     D#5/5+ D        A
mittsu yottsu saa yukou

-------------------------|----------------------------------------------------|
-------------10-------10-|----------------------------------------------------|
-------------------------|----------------------------------------------------|
-------10-12----10-12----|----------------------------------------------------|
-12-12-------------------|----------------------------------------------------|
-------------------------|----------------------------------------------------|
{Go! Go! Fight!}

D      C#5/5+  C          B
lalala lalala  ai no utagoe ga
Em             A
kikoete kuru kara

---------------------------------------------------------||-------------------|
-15-15-------15-------15-1313------------------1313------||-------------------|
-------12b14----12b14----------14vvv-12--14vvv------14vv-||-------------------|
---------------------------------------------------------||-------------------|
---------------------------------------------------------||-------------------|
-----------------------------------------------------rpt-||-------------------|

----------------------|-------------------------------------------------------|
----------------------|-------------------------------------------------------|
-14-------14-------14-|-------------------------------------------------------|
----12b14----12b14----|-------------------------------------------------------|
----------------------|-------------------------------------------------------|
----------------------|-------------------------------------------------------|

D             C#5/5+                Bm
koi suru dake nara natoka naru kedo ai suru to naru to ne
Em               D#5/5+            A                 G    A
yuki mo hitsuyou sore yori aite yo ne {iino inai?}

D                    C#5/5+               C                B
kizukeba natsu dashi sono uchi fuku dashi nandaka setsunai na
Em                A
kekkyoku aneki to Lunch Viking

------------------------|-----------------------------------------------------|
------------------------|-----------------------------------------------------|
-7--97--97--97--97--7\\-|-----------------------------------------------------|
-7--97--97--97--97--7\\-|-----------------------------------------------------|
-5--75--75--75--75--5\\-|-----------------------------------------------------|
------------------------|-----------------------------------------------------|

--------------------------------------------------------|---------------------|
--------------------------------------------------------|---------------------|
--------------------------------------------7-7-7-------|-5-4-----------------|
------/4-2--------/2-0----------0-----------7-7-7-------|-5-4-----------------|
---2-------1----0------------------4--0-----5-5-5432vvv-|-3-2-----------------|
-2------------1--------4---0--3----------3--------------|---------------------|
Bm
tomodachi minna kare to
F#m
icha icha
G           A       D
kuttsuitari wakaretari {karukunee?}

D     C#5/5+      Bm
honto no renai wa sonna
   F#m    G        Em       Bb    A
kantan ja mitsukaranai hazu yo

       D       C#5/5+
habatakou
         Bm                  Em
mirai wa jibun no te no naka sa
        A
mune wa hatte YEAH

------------------------------------------------------------------------------|
------------------------------------------------------------------------------|
------------------------------------------------------------------------------|
-------7----------------------------------------------------------------------|
---4-5-----4-7----------------------------------------------------------------|
-5-------5--------------------------------------------------------------------|

       D      C#5/5+
RIVAL wa
          C        B         Em
yowaki de ushiru muki na watashi
     A
kantan ni wa makenai

-----------------------------------------------|
-15-15-------15-------15-1313------------------|
-------12b14----12b14----------14vvv-----------|
-----------------------------------------------|
-----------------------------------------------|
-----------------------------------------------|

D                   C#5/5+            Bm
yume miteru dake ja yume wa kanawanai wakacchairu kedo ne
Em             D#5/5+            A
tsukin tsugaku mainichikiru fuku WOW WOW
G    A
{erabudake de atama tsukau wa}

D                 C#5/5+          C               B
shincho nobiru no sukkari tomatta taijyu fueru no ni
Em                 A     D
okashi wo yametemo ICE tabechau

------------------------|-----------------------------------------------------|
------------------------|-----------------------------------------------------|
-7--97--97--97--97--7\\-|-----------------------------------------------------|
-7--97--97--97--97--7\\-|-----------------------------------------------------|
-5--75--75--75--75--5\\-|-----------------------------------------------------|
------------------------|-----------------------------------------------------|

Bm             F#m
chotto kiwadoi MINI wo haitara
G      A      D
sensei boyaiteta
{otona ni wa waka ne darou na}

D       C#5/5+      Bm       F#m
souiu bubun iutori nakushite yukeba
G      Em       Bb    A
iitoko nakunaru yo

        D       C#5/5+
habatakou
           Bm                Em        A
dare ni mo makenai tanoshisa de tobitatsunda

------------------------------------------------------------------------------|
------------------------------------------------------------------------------|
------------------------------------------------------------------------------|
-------7----------------------------------------------------------------------|
---4-5-----4-7----------------------------------------------------------------|
-5-------5--------------------------------------------------------------------|

          D    C#5/5+
kuyashikerya
         C          B       Em
hanamizu majiri no namida toka
       A        D
nagashichaeba iijan

---------------0x--------------|----------------------------------------------|
-3-----3---1-----------1---1-2-|----------------------------------------------|
-------------2-----2x----2-----|----------------------------------------------|
---3-4-------------------------|----------------------------------------------|
-------------------------------|----------------------------------------------|
-------------------------------|----------------------------------------------|
Go! Go! Fight!
Go! Go! Fight! Woo!

SOLO
------------------------------------------------10----10-13b14-13b14r13-10----|
-13------------------------------------------10-------------------------------|
----12b13r12-10------------------10----10-------------------------------------|
----------------12-11br-10-11-12----12----12----------------------------------|
------------------------------------------------------------------------------|
------------------------------------------------------------------------------|

-------------10------14-|---13-------13----13-15b17--15b17r15-13--------------|
-13-------------8/10----|-6/15-13-15----15-----------------------15-15vvv-----|
----12b13r12------------|-----------------------------------------------------|
------------------------|-----------------------------------------------------|
------------------------|-----------------------------------------------------|
------------------------|-----------------------------------------------------|

--------------|---------------------------------------------------------------|
-16\\\\\\3----|---------------------------------------------------------------|
--------------|---------------------------------------------------------------|
--------------|---------------------------------------------------------------|
--------------|---------------------------------------------------------------|
--------------|---------------------------------------------------------------|

---------------------------------|--------------------------------------------|
-14-----14-----14-----14-----14v-|-14-----14-----14-----14-----14-------------|
-14-----14-----14-----14-----14v-|-14-----14-----14-----14-----14-------------|
----12b----12b----12b----12b-----|----12b----12b----12b----12b-----10-7-------|
---------------------------------|---------------------------------10-7-------|
---------------------------------|----------------------------------8-5-------|

       D       C#5/5+
habatakou
         Bm                  Em
mirai wa jibun no te no naka sa
        A     D
mune wo hatte YEAH

-------------------|
-3-----3-----------|
-------------------|
---3-4----3-4--5-7-|
---------------5-7-|
---------------3-5-|

       D       C#5/5+
RIVAL wa
          C        B         Em
yowaki de ushiro muki na watashi
     A      D
kantan ni wa makenai

DD FF GG AA C A

D       C#5/5+  Bm
hitotsu futatsu ookiku mawase
Em     D#5/5+ D     A
mittsu yottsu saa yukou
{Go! Go! Fight!}

D      C#5/5+ C          B
lalala lalala ai no utagoe ga
Em   A         D
kikoete kuru kara

---------------0x--------------|----------------------------------------------|
-3-----3---1-----------1---1-2-|----------------------------------------------|
-------------2-----2x----2-----|----------------------------------------------|
---3-4-------------------------|----------------------------------------------|
-------------------------------|----------------------------------------------|
-------------------------------|--x4------------------------------------------|

----------------------|-------------------------------------------------------|
----------------------|-------------------------------------------------------|
-14-------14-------14-|-7--97--97--97-----------------------------------------|
----12b14----12b14----|-7--97--97--97-----------------------------------------|
----------------------|-5--75--75--75-----------------------------------------|
----------------------|-------------------------------------------------------|
Go! Go! Go! Go! Fight!
Добавлено: 12.07.2013
Другие материалы по этой песне:
  • Аккорды и текст

Страница создана 12.07.2013
http://primanota.ru/berryz-koubou/rival-chords.htm
Привет, Гость.
Предлагаем пройти революционный курс по гитаре.
Подарок от PrimaNota.Ru, забирай!