PrimaNota.ru - самый крупный в мире бесплатный архив песенных текстов, аккордов, табулатур и нот


Berri Txarrak - Nortasuna Eraikitzen - таба, видео

Регистрация Запомнить меня
Войти через:  Facebook Google Twitter Vk Yandex Mail.ru

Berri Txarrak - Nortasuna Eraikitzen - таба, видео

Печатать
Просмотров: 145
It's the first part I tab, if anyone know the whole song please mail me: 
. Or put it here.

 * = palm muted

RiFF ONE: x2
e/-----------------------------|-----------------------------|
B/---------------------------9-|---------------------------9-|
G/--**p.m**----*----*----* *---|--**p.m**----*----*----* *---|
D/--7-7-7-7-7--7-7--7-7--7-7---|--7-7-7-7-7--7-7--7-7--7-7---|
A/--7-7-7-7-7--7-7--7-7--7-7---|--7-7-7-7-7--7-7--7-7--7-7---|
E/--5-5-5-5-5--5-5--5-5--5-5---|--5-5-5-5-5--5-5--5-5--5-5---|


e/-----------------------------|-----------------------------|
B/---------------------------9-|-----------------------------|
G/--**p.m**----*----*----* *---|--**p.m**----*---UFF!!-------|
D/--7-7-7-7-7--7-7--7-7--7-7---|--7-7-7-7-7--7-7------UFF!!--|
A/--7-7-7-7-7--7-7--7-7--7-7---|--7-7-7-7-7--7-7-------------|
E/--5-5-5-5-5--5-5--5-5--5-5---|--5-5-5-5-5--5-5-------------|

RiFF ONE variation: x2
e/-----------------------------|-----------------------------|
B/---------------------------9-|---------------------------9-|
G/--**p.m**----*----*----* *---|--**p.m**----*----*----* *---|
D/--7-7-7-7-7--7-7--7-7--7-7---|--7-7-7-7-7--7-7--7-7--7-7---|
A/--7-7-7-7-7--7-7--7-7--7-7---|--7-7-7-7-7--7-7--7-7--7-7---|
E/--5-5-5-5-5--5-5--5-5--5-5---|--5-5-5-5-5--5-5--5-5--5-5---|


e/-----------------------------|-----------------------------|
B/---------------------------9-|-----------------------------|
G/--**p.m**----*----*----* *---|--**p.m**----*-----999101010-|
D/--7-7-7-7-7--7-7--7-7--7-7---|--7-7-7-7-7--7-7---999101010-|
A/--7-7-7-7-7--7-7--7-7--7-7---|--7-7-7-7-7--7-7---7778-8-8--|
E/--5-5-5-5-5--5-5--5-5--5-5---|--5-5-5-5-5--5-5-------------|

ADRIAN VIZCAINO, HUELVA, SPAIN, 21-05-07, 6:12a.m.
Добавлено: 07.03.2012
Вам также может быть интересно:
Другие материалы по этой песне:
  • Аккорды и текст

Страница создана 07.03.2012
http://primanota.ru/berri-txarrak/nortasuna-eraikitzen-chords.htm
Привет, Гость.
Предлагаем пройти революционный курс по гитаре.
Подарок от PrimaNota.Ru, забирай!