PrimaNota.ru - самый крупный в мире бесплатный архив песенных текстов, аккордов, табулатур и нот


Berri Txarrak - Jainko Ateoa - таба, видео

Регистрация Запомнить меня
Войти через:  Facebook Google Twitter Vk Yandex Mail.ru

Berri Txarrak - Jainko Ateoa - таба, видео

Печатать
Просмотров: 150
Уроки эстрадного вокала в Санкт-Петербурге
JAINKO ATEOA

By : Andres ( of Dex-karga )
Afinazioa : D A D G B E
   
|--------------------------------------------------------------------|
|--------------------------------------------------------------------|
|--------------------------------------------------------------------|
|3-3--------------6-7-6---3-3------1---10/6--8/5---------------------|
|3-3------6---6-8---------3-3------1---x--x--x-x---------------------|
|3-3—6-8------------------3-3--6-8-1---10/6--8/5---------------------|

|--------------------------------------------------------------------|
|--------------------------------------------------------------------|
|--------------------------------------------------------------------|
|3-3--------------6-7-6---3-3-x-x-x-3-3------------------------------|
|3-3------6---6-8---------3-3-x-x-x-3-3------------------------------|
|3-3—6-8------------------3-3-x-x-x-3-3--15/-------------------------|

|--------------------------------------------------------------------|
|--------------------------------------------------------------------|
|--------------------------------------------------------------------|
|3-3--------------6-7-6---3-3------1---10/6--8/5---------------------|
|3-3------6---6-8---------3-3------1---x--x--x-x---------------------|
|3-3—6-8------------------3-3--6-8-1---10/6--8/5---------------------|

|--------------------------------------------------------------------|
|--------------------------------------------------------------------|
|-----------------------------10/8-------8/5-------------------------|
|3-3--------------6-7-6---3-3--x-x--3-3--x-x--3----------------------|
|3-3------6---6-8---------3-3--8/6--3-3--6/3--3----------------------|
|3-3—6-8------------------3-3-------3-3-------3----------------------|
Добавлено: 11.03.2012
Другие материалы по этой песне:

Страница создана 11.03.2012
http://primanota.ru/berri-txarrak/jainko-ateoa-chords.htm
Привет, Гость.
Предлагаем пройти революционный курс по гитаре.
Подарок от PrimaNota.Ru, забирай!